Guitaretab - guitar tabs
Song name
# A B C D E F G H I J K L M N O P Q R S T U V W X Y Z

Dick Annegarn - Coutances tab

partial credit to Jon Hasz

Intro
e|--------------------------------------------------------------------------|
B|-----3--------3--------3--------3---------0---------0--------0-------0----|
G|-----2--------2--------2--------2---------0---------0--------0-------0----|
D|---3---3----3---3----3---3----3---3-----2----2----2---2----2---2---2---2--|
A|-0--------1--------2--------3---------4---------0--------0----------------|
E|-----------------------------------------------------------------2--------|

e|--------------------------------------------------------------------------|
B|-----3--------3--------3--------3---------0---------0--------0-------0----|
G|-----2--------2--------2--------2---------0---------0--------0-------0----|
D|---3---3----3---3----3---3----3---3-----2----2----2---2----2---2---2---2--|
A|-0--------1--------2--------3---------4---------4--------4-------4--------|
E|--------------------------------------------------------------------------|

Verse
e|--------------------------------------------------------------------------|
B|-----3--------3--------3--------3---------0---------0--------0-------0----|
G|-----2--------2--------2--------2---------0---------0--------0-------0----|
D|---3---3----3---3----3---3----3---3-----2----2----2---2----2---2---2---2--|
A|-0--------1--------2--------3---------4---------0----------------0--------|
E|---------------------------------------------------------2----------------|
[ Tab from: http://www.guitaretab.com/d/dick-annegarn/113012.html ]
e|--------------------------------------------------------------------------|
B|-----3--------3--------3--------3---------0---------0--------0-------0----|
G|-----2--------2--------2--------2---------0---------0--------0-------0----|
D|---3---3----3---3----3---3----3---3-----2----2----2---2----2---2---0---0--|
A|-0--------1--------2--------3---------4---------4--------4----------------|
E|-----------------------------------------------------------------3--------|

e|--------------------------------------------------------------------------|
B|-----0----------0----------0--------0--------9-------9--------8-------8---|
G|-----0----------0----------0--------0--------7-------7--------6-------6---|
D|---0---0------0----0-----0---0----0---0----8---8---8---8----7---7---7---7-|
A|-----------------------0----------------------------------0-------0-------|
E|-3---------1--------------------3--------6-------6------------------------|

e|------8--------8--------6--------6--------4--------4--------3--------3-----|
B|------8--------8--------6--------6--------4--------4--------3--------3-----|
G|----7---7----7---7----5---5----5---5----3---3----3---3----2----2----2--2---|
D|--7--------7--------5--------5--------3-----------------2------------------|
A|-----------------------------------------------4------------------3--------|
E|---------------------------------------------------------------------------|


Chorus
e|------1---------1---------1---------1---------1-------1-------1-------1----|
B|------0---------0---------0---------0---------1-------1-------1-------1----|
G|----2---2-----2---2-----2---2-----2---2-----1---1---1---1---0---0---0---0--|
D|--0--------0------------------------------0-------0------------------------|
A|----------------------0-----------------------------------1-------1--------|
E|--------------------------------2------------------------------------------|

e|------------------------------------------------------------------------0-|
B|-----3--------3--------3--------3---------0--------0-------0-----3-0----0-|
G|-----2--------2--------2--------2---------0--------0-------0-----0-0------|
D|---3---3----3---3----3---3----3---3-----2----2---2---2---2---2--2---2-----|
A|-0--------1--------2--------3---------4--------0-------0-------0------0---|
E|--------------------------------------------------------------------------|
Related for Coutances tab
Advertisement will be closed in 10 seconds