Song name
# A B C D E F G H I J K L M N O P Q R S T U V W X Y Z

Dick Brave And The Backbeats - Complicated tab

Band :  The Cliks
Song title :  Complicated
Tabbed by : JoelleG

Tuning: Standard. CAPO on 2nd fret

The band is amazing and this song is really cool to play.
Listen to the song for the timing!

Enjoy! :)

. = palm mute


INTRO
e|-----------------------------------------------|
B|-----------------------------------------------|
G|-----------------------------------------------|
D|--2-2-2-2-2-2-2-2-2----------------------------| X3
A|--2-2-2-2-2-2-2-2-2---3-3-3-3---2---0----------|
E|--0-0-0-0-0-0-0-0-0---------------------3------|
    . . . . . . . . .   . . . .   .   .   .

e|-----------------------------------------------|
B|-----------------------------------------------|
G|--2-2-2-2-2-2-2-2-2----------------------------|
D|--2-2-2-2-2-2-2-2-2----------------------------|
A|--0-0-0-0-0-0-0-0-0----------------------------|
E|-----------------------------------------------|
    . .


VERSE (x2)
e|------------------------------|
B|------------------------------|
G|------------------------------|
D|--2-2-2-2-2-2-2-2-2-2-2-2---2-|
A|--2-2-2-2-2-2-2-2-2-2-2-2---2-|
E|--0-0-0-0-0-0-0-0-0-0-0-0-3-0-|
    . .   . .   . .   . .

e|---------------|----------------|--------------|--------------|
B|---------------|----------------|--------------|--------------|
G|---------------|-2-2-2-(x4)---2-|-2-2-2-(x5)-2-|-4-4-4-(x5)-4-|
D|--2-2-2-(x5)-2-|-2-2-2--------2-|-2-2-2------2-|-4-4-4------4-|
A|--2-2-2------2-|-0-0-0--------0-|-0-0-0------0-|-2-2-2------2-|
E|--0-0-0------0-|------------3---|--------------|--------------|
    . .            . .              . .            . .

   ---------------|
   ---------------|
   --5-5-5-(x5)-5-|
   --5-5-5------5-|
   --3-3-3------3-|
   ---------------|
     . .

e|-----------------------------------------------|
B|-----------------------------------------------|
G|-----------------------------------------------|
D|--2-2-2-2-2-2-2-2-2----------------------------| X2
A|--2-2-2-2-2-2-2-2-2---3-3-3-3---2---0----------|
E|--0-0-0-0-0-0-0-0-0---------------------3------|


PRE CHORUS
e|----------------------------------|---------------------|
B|----------------------------------|---------------------|
G|--5--5-5--5-------------------X3--|---------------------|
D|--5--5-5--5-----3-3-3-3-3-3-3-----|--2-2-2-2-2-2-2-2-2--|
A|--3--3-3--3-----3-3-3-3-3-3-3-----|--2-2-2-2-2-2-2-2-2--|
E|----------------1-1-0-1-0-1-0-----|--0-0-0-0-0-0-0-0-0--|
  


CHORUS
e|-------------------------------------------|
B|-------------------------------------------|
G|--2--2-2--2-2-2-2-2---5--5-5--5-5-5-5-5----|
D|--2--2-2--2-2-2-2-2---5--5-5--5-5-5-5-5----|
A|--0--0-0--0-0-0-0-0---3--3-3--3-3-3-3-3----|
E|-------------------------------------------|

  -------------------------------------------|
  -------------------------------------------|
  -------------------------------------------|
  --3--3-3--3-3-3-3-3---2--2-2--2-2-2-2-2----|
  --3--3-3--3-3-3-3-3---2--2-2--2-2-2-2-2----|
  --1--1-1--1-1-1-1-1---0--0-0--0-0-0-0-0----|

  -------------------------------------------|
  -------------------------------------------|
  --2--2-2--2-2-2-2-2---5--5-5--5-5-5-5-5----|
  --2--2-2--2-2-2-2-2---5--5-5--5-5-5-5-5----|
  --0--0-0--0-0-0-0-0---3--3-3--3-3-3-3-3----|
  -------------------------------------------|

  -------------------------
  -------------------------
  -------------------------
  --3--3-3--3-3-3-3-3------
  --3--3-3--3-3-3-3-3------
  --1--1-1--1-1-1-1-1------


  ---------------------------------------------------------------|
  ---------------------------------------------------------------|
  ---------2-(x8)---5-(x8)------------------2-(x8)--5-(x8)-------|
  --2-(x8)-2--------5-------5-(x8)--2-(x8)--2-------5-----5-(x8)-|
  --2------0--------3-------5-------2-------0-------3-----5------|
  --0-----------------------3-------0---------------------3------|


BRIDGE (So if you say you wanna stay the night...)
e|-----------------------------|---------------------------|
B|-----------------------------|---------------------------|
G|---------5-(x8)-7-(x8)-------|----------5(x8)--7(x16)----|
D|--5-(x8)-5------7------5-(x8)|--5-(x8)--5------7---------|
A|--5------3------5------5-----|--5-------3------5---------|
E|--3--------------------3-----|--3------------------------|

CHORUS (ending)
e|-------------------------------------------|
B|-------------------------------------------|
G|--2--2-2--2-2-2-2-2---5--5-5--5-5-5-5-5----|
D|--2--2-2--2-2-2-2-2---5--5-5--5-5-5-5-5----|
A|--0--0-0--0-0-0-0-0---3--3-3--3-3-3-3-3----|
E|-------------------------------------------|

  -------------------------------------------|
  -------------------------------------------|
  -------------------------------------------|
  --3--3-3--3-3-3-3-3---2--2-2--2-2-2-2-2----|
  --3--3-3--3-3-3-3-3---2--2-2--2-2-2-2-2----|
  --1--1-1--1-1-1-1-1---0--0-0--0-0-0-0-0----|

  -------------------------------------------|
  -------------------------------------------|
  --2--2-2--2-2-2-2-2---5--5-5--5-5-5-5-5----|
  --2--2-2--2-2-2-2-2---5--5-5--5-5-5-5-5----|
  --0--0-0--0-0-0-0-0---3--3-3--3-3-3-3-3----|
  -------------------------------------------|

  -------------------------|
  -------------------------|
  -------------------------|
  --3--3-3--3-3-3-3-3------|
  --3--3-3--3-3-3-3-3------|
  --1--1-1--1-1-1-1-1------|


  ---------------------------------------------------------------|
  ---------------------------------------------------------------|
  ---------2-(x8)---5-(x8)------------------2-(x8)--5-(x8)-------|
  --2-(x8)-2--------5-------3-(x8)--2-(x8)--2-------5-----5-(x8)-|
  --2------0--------3-------3-------2-------0-------3-----5------|
  --0-----------------------1-------0---------------------3------|


============================================================================
Tap to rate this tab
# A B C D E F G H I J K L M N O P Q R S T U V W X Y Z