Song name
# A B C D E F G H I J K L M N O P Q R S T U V W X Y Z

Die Aerzte - Wie Es Geht tab

#----------------------------------PLEASE NOTE----------------------------------#
# This file is the author's own work and represents their interpretation of the #
# song. You may only use this file for private study, scholarship, or research. #
#-------------------------------------------------------------------------------#

Copied from: http://www.azchords.com/a/aertze-4843/wieesgeht-49846.html 


PROPS GO TO: Luke

Die Ärzte - Wie es geht
M/T: Farin Urlaub


Intro-Sequenz (5mal - zum Intro ab dem 2. Mal Begleitung, s.u.):
e|:---------------------------------|---------------------------------:|
h|:-----8-8-----8-8-----6-6-----6-6-|-----5-5-----5-5-----6-6-----6-6-:|
g|:-5-5-----5-5-----5-5-----5-5-----|-5-5-----5-5-----5-5-----5-5-----:|
d|:---------------------------------|---------------------------------:|
A|:---------------------------------|---------------------------------:|
E|:---------------------------------|---------------------------------:|


           C          B   F      C          B   F
xxxxxxxx - xxxxxxxx - xxxxxxxx - xxxxxxxx - xxxxxxxx  

(Jedes 'xxxxxxxx' entspricht einmal dem obigen Intro-Schema, drüber stehen die Akk's)

am Schluß der Intro-Sequenz ('3' auf g anstatt der letzten '6' auf der h):

    C
---|---...:|e
---|---...:|h
-3-|-5-...:|g
---|---...:|d
---|---...:|A
---|---...:|E

a               F              C          
 Ich schau dich an und du bist unbeschreiblich schön,
           a         F               C
ich könnte ewig hier sitzen und dich einfach nur ansehn.
     G                                     F
Doch plötzlich stehst du auf und du willst gehn .


--Ref: (arpeggiert, die hohen drei Saiten werden so gehalten, nur der Bass läuft)--

    C                                                            a
e|:-----3-------------3---------|------3-------------3---------|-----3-------..
h|:---------5-------------5-----|----------5-------------5-----|---------5---..
g|:-----------5-------------5---|------------5-------------5---|-----------5-..
d|:-------------5-------------5-|--------------5-------------5-|-------------..
A|:-3-------------3-------------|-3--------------3-------------|-0-----------..
E|:-----------------------------|------------------------------|-------------..
                  Bitte geh noch  nicht, ich weiß, es ist schon  spät,
                      F                               C 
ich will dir noch was sagen ich weiß nur nicht wie es geht.
                                                     a 
Bleib noch ein bisschen hier und schau mich nicht so an,
                      F                                 C (wie Intro, 4 mal)
weil ich sonst ganz bestimmt überhaupt gar nichts sagen kann.


         a                 F              C
Ich weiß selber nicht, was los ist, meine Knie werden weich,
   a                F                  C
im Film sieht es so einfach aus, jetzt bin ich kreidebleich.
    G                                    F
Ich weiß nicht, was ich sagen soll, mein Gott, jetzt gehst du gleich.


C                                              a  
 Bitte geh noch nicht, bleib noch ein bisschen hier,
                     F                           C
ich muß dir noch was sagen, nur die Worte fehlen mir .
                                             a
Bitte geh noch nicht, ich weiß, es ist schon spät,
                      F                                C (wie Intro, 4 mal)
ich will dir noch was sagen, ich weiß nur nicht wie es geht...wie es geht... 


BRIDGE:

e|:---5-5-5-
h|:---------
g|:-5-------  (muted, dieses Schema über die ganze Bridge)


a            G              d           F
  Ich dachte immer, dass es leicht wär,
           a          G                F     d
ich dachte immer, das ist doch kein Problem.
a                G              d               F   
  Jetzt sitz ich hier wie ein Kaninchen vor der Schlange,
        a         G     F      d
und ich fühl mich wie gelähmt.
G                            F       
  Ich muß es sagen, ich weiß nur noch nicht wie,
    G                 F
ich muß es dir sagen, jetzt oder nie!


Bitte geh noch nicht, am besten, gehst du nie,
ich hab's dir schon so oft gesagt, in meiner Fantasie.
Bleib noch ein bißchen hier, bitte geh noch nicht,
                                               Intro x mal wiederholen
was ich versuche, dir zu sagen, ist "ich liebe dich" 

ich weiß nicht, wie es geht...wie es geht...wie es geht......
Tap to rate this tab
 
# A B C D E F G H I J K L M N O P Q R S T U V W X Y Z