Song name
# A B C D E F G H I J K L M N O P Q R S T U V W X Y Z

Die Antwoord - Enter The Ninja tab

you'll have to tune half step down in order to play with the song

intro notes

A|-4--5--4--2--|


e|-2-----x---2---0-----|
B|-2-----3---2---0-----|
G|-2-----x---2---1-----|
D|-4-----4---2---2-----|
A|-4-----5---4---2-----|
E|-2-4-5-5---x---0-----|

e|-2-----x---2---0-----|
B|-2-----3---2---0-----|
G|-2-----x---2---1-----|
D|-4-----4---2---2-----|
A|-4-----5---4---2-----|
E|-2-4-5-5---x---0-----|

and then you have to play this...

e|-2-----x---2---0-----|
B|-2-----3---2---0-----|
G|-2-----x---2---1-----|
D|-4-----4---2---2-----|
A|-4-----5---4---2-----|
E|-2-4-5-5---x---0-----|

and the end kinda goes like this

e|-2-----x---2---0-----|
B|-2-----3---2---0-----|
G|-2-----x---2---1-----|
D|-4-----4---2---2-----|
A|-4-----5---4---2-----|
E|-2-4-5-5---x---0-----|

also if you need a valentine i'll be yours :)

Tap to rate this tab
 
# A B C D E F G H I J K L M N O P Q R S T U V W X Y Z