Song name
# A B C D E F G H I J K L M N O P Q R S T U V W X Y Z

Die Mannequin - Away tab

Tuning                 Away - Die Mannequin - Danceland
D --------|
A --------|
F --------|
C --------|
G --------|
D --------|

Intro
-------------------------------- ----------------|
-------------------------------- ----------------|
----------------3333333333333555 ----------------|
----------------3333333333333555 ----------------|
-55-5\----------1111111111111333 -55-5\----------|
0--0--010110110----------------- 0--0--010110110-|

Verse 1
-------------------------------- ---------------------------------|
-------------------------------- ---------------------------------|
----------------7777777777777777 ----------------7777777777777777-|
33333333333333337777777777777777 33333333333333337777777777777777-|
33333333333333335555555555555555 33333333333333335555555555555555-|
1111111111111111---------------- 1111111111111111-----------------|
pm****************************** pm******************************

-------------------------------- ---------------------------------|
-------------------------------- ---------------------------------|
3333333333333333---------------- 33333333333333335555555566666666-|
33333333333333335555553333335555 33333333333333335555555566666666-|
11111111111111115555553333335555 11111111111111113333333344444444-|
----------------3333331111113333 ---------------------------------|
pm****************************** pm**************************

Chorus 1
-------------------------------- ---------------------------------|
-------------------------------- ---------------------------------|
----------------3333333333333555 ----------------3333333333333555-|
-------------3323333333333333555 ----------------3333333333333555-|
-------------3321111111111111333 -55-5\----------1111111111111333-|
-------------110---------------- 0--0--01-110110------------------|

-------------------------------- ---------------------------------|
-------------------------------- ---------------------------------|
----------------3333333333333555 ----------------3333333333333555-|
----------------3333333333333555 ----------------3333333333333555-|
-55-5\----------1111111111111333 -55-5\----------1111111111111333-|
0--0--01-110110----------------- 0--0--01-110110------------------|

----------------|
----------------|
----------------|
----------------|
-55-5\----------|
0--0--010110110-|

Verse 2
-------------------------------- ---------------------------------|
-------------------------------- ---------------------------------|
----------------7777777777777777 ----------------7777777777777777-|
33333333333333337777777777777777 33333333333333337777777777777777-|
33333333333333335555555555555555 33333333333333335555555555555555-|
1111111111111111---------------- 1111111111111111-----------------|
pm****************************** pm******************************

-------------------------------- ---------------------------------|
-------------------------------- ---------------------------------|
3333333333333333---------------- 33333333333333335555555566666666-|
33333333333333335555553333335555 33333333333333335555555566666666-|
11111111111111115555553333335555 11111111111111113333333344444444-|
----------------3333331111113333 ---------------------------------|
pm****************************** pm**************************

Chorus 2

-------------------------------- ---------------------------------|
-------------------------------- ---------------------------------|
----------------3333333333333555 ----------------3333333333333555-|
----------------3333333333333555 ----------------3333333333333555-|
-55-5\----------1111111111111333 -55-5\----------1111111111111333-|
0--0--01-110110----------------- 0--0--01-110110------------------|

-------------------------------- ---------------------------------|
-------------------------------- ---------------------------------|
----------------3333333333333555 ----------------3333333333333555-|
----------------3333333333333555 ----------------3333333333333555-|
-55-5\----------1111111111111333 -55-5\----------1111111111111333-|
0--0--01-110110----------------- 0--0--01-110110------------------|

Middle Eight
-------------------------------- ---------------------------------|
-------------------------------- ---------------------------------|
77777777777777775555555555555555 77777777777777775555555555555555-|
77777777777777775555555555555555 77777777777777775555555555555555-|
55555555555555553333333333333333 55555555555555553333333333333333-|
-------------------------------- ---------------------------------|

-------------------------------- ----------------------------------|
-------------------------------- ----------------------------------|
3333333333333333---------------- 3333333333333333-5-5-5-5-6-6-6-6--|
33333333333333335555553333335555 3333333333333333-5-5-5-5-6-6-6-6--|
11111111111111115555553333335555 1111111111111111-3-3-3-3-4-4-4-4--|
----------------3333331111113333 ----------------0-0-0-0-0-0-0-0-0-|

Rhythm Under Solo
-------------------------------- ---------------------------------|
-------------------------------- ---------------------------------|
----------------3333333333333555 ----------------3333333333333555-|
----------------3333333333333555 ----------------3333333333333555-|
-55-5\----------1111111111111333 -55-5\----------1111111111111333-|
0--0--01-110110----------------- 0--0--01-110110------------------|

Solo
---------------------------------------8-10-|
10--10--10--10--10--10-11-10~-10-11-10------|
12b-12b-12b-12b-12b-------------------------|
--------------------------------------------|
--------------------------------------------|
--------------------------------------------|

10--10--10--10--10--12-13-12~--12-12-12-12-13\--|
13b-13b-13b-13b-13b-----------15-15-15-15-------|
------------------------------------------------|
------------------------------------------------|
------------------------------------------------|
------------------------------------------------|

Chorus 3
-------------------------------- ---------------------------------|
-------------------------------- ---------------------------------|
----------------3333333333333555 ----------------3333333333333555-|
-------------3323333333333333555 ----------------3333333333333555-|
-------------3321111111111111333 -55-5\----------1111111111111333-|
-------------110---------------- 0--0--01-110110------------------|

-------------------------------- ---------------------------------|
-------------------------------- ---------------------------------|
----------------3333333333333555 ----------------3333333333333555-|
----------------3333333333333555 ----------------3333333333333555-|
-55-5\----------1111111111111333 -55-5\----------1111111111111333-|
0--0--01-110110----------------- 0--0--01-110110------------------|

Outro
--------------------------------------------|
--------------------------------------------|
----------------3-3-3-3-3-3-3-3-3-3-XXX-3---|
----------------3-3-3-3-3-3-3-3-3-3-XXX-3---|
-55-5\----------1-1-1-1-1-1-1-1-1-1-XXX-1---|
0--0--010110110-----------------------------|


\      Slide Down
~         Vibrato
X       Mute note
pm***   Palm mute
b            Bend
Tap to rate this tab
# A B C D E F G H I J K L M N O P Q R S T U V W X Y Z