Song name
# A B C D E F G H I J K L M N O P Q R S T U V W X Y Z

Die Toten Hosen - Strom tab

  Die Toten Hosen - Strom     
  tabbed by Baluga

     F#    H     A     E     C#    D     E    F#    

 e|-----|-----|-----|-----|-----|-----|-----|-----|
 h|-----|-----|-----|-----|-----|-----|-----|-----|
 G|-----|--4--|--2--|-----|--6--|--7--|--9--|-11--|
 D|--4--|--4--|--2--|--2--|--6--|--7--|--9--|-11--|  
 A|--2--|--2--|--0--|--2--|--4--|--5--|--7--|--9--|    
 E|--2--|-----|-----|--0--|-----|-----|-----|-----|         


 Intro:

 e|-----------------------------------------|
 h|-----------------2--0--------------------|
 G|-----2--1----------------2---2--1--------|
 D|-4-----------4---------------------------|
 A|-----------------------------------------|
 E|-----------------------------------------|
         

  F#     H  A
  
  F#
  Schach Matt, Guten Tach es ist alles in Ordnung,
                               H      A
  ihr könnt aufwachen wir sind wieder da.

  ...

  A            E           F#   
  Hört her und öffnet eure Ohren,
  A           E           C#
  Wir sind zurück wie neu geboren.


  
  D         E           F#
  Und alles steht unter Strom,
      D              E       F#    
  vom ersten bis zum letzten Ton.

  


und so weiter...

Ist bestimmt nich alles 100% richtig, aber wenigstens schonmal etwas. Hört sich ganz okay an ;)
Tap to rate this tab
# A B C D E F G H I J K L M N O P Q R S T U V W X Y Z