Song name
# A B C D E F G H I J K L M N O P Q R S T U V W X Y Z

Die Toten Hosen - Rock N Roll tab

|---------------------------------------|
|---------------------------------------|
|---------------------------------------|
|-/9---------/9---------/9---------/9---|
|-/7---------/7---------/7---------/7---|
|---------------------------------------|

	    {repeat 1x}
|------|:-------------:|----------------|
|------|:-------------:|----------------|
|------|:-------------:|----------------|
|-6-/7-|:-\6-\4-4-6-7-:|-5-\6-6-/9-9-\8-|
|-4-/5-|:-\4-\2-2-4-5-:|-7-\4-4-/7-7-\6-|
|------|:-------------:|----------------|

      { repeat 3x }
            "Rock'n'Rooooll... hey... Rock'n'Roll"
|---------------------------------------|
|---------------------------------------|
|-----------9-7-12----------------------|
|-----------7-5-10----------------------|
|-9-9-9-9-9--------7-7-7----------------|
|-7-7-7-7-7--------5-9-9----------------|

		"Ooooh... hey... Rock'n'Roll"
|----------------PAUSE------------------|
		"Ooooh... hey... Rock'n'Roll"
|----------------PAUSE------------------|


	{ guitars repeat 8x / vocals repeat 2x }
		"Ooooh... hey... Rock'n'Roll"
|---------------------------------------|
|---------------------------------------|
|---------------------------------------|
|------------7/9-9--9-9-9-9-------------|
|------------5/7-7--7-7-7-7-------------|
|---------------------------------------|

	    {repeat 1x}
|------|:-------------:|----------------|
|------|:-------------:|----------------|
|------|:-------------:|----------------|
|-6-/7-|:-\6-\4-4-6-7-:|-5-\6-6-/9-9-\8-|
|-4-/5-|:-\4-\2-2-4-5-:|-7-\4-4-/7-7-\6-|
|------|:-------------:|----------------|

      { repeat 6x }
            "Rock'n'Rooooll... hey... Rock'n'Roll"
|---------------------------------------|
|---------------------------------------|
|-----------9-7-12----------------------|
|-----------7-5-10----------------------|
|-9-9-9-9-9--------7-7-7----------------|
|-7-7-7-7-7--------5-9-9----------------|
Tap to rate this tab
# A B C D E F G H I J K L M N O P Q R S T U V W X Y Z