Song name
# A B C D E F G H I J K L M N O P Q R S T U V W X Y Z

Die Toten Hosen - Altes Fieber tab

Titel: Altes Fieber
Interpret: Die Toten Hosen
Album: Ballast der Republik (2012)


Tuning: Standard

(only Lead-Guitar)


Intro: (Bass, Guitar 2)


            Em         C            G           D       B

Verse 1: --------------------------------------------------------|
         ---------8-----------8-----------3-----------7-------7--|
         ------9-----------9-----------3-----------7-------8-----|
         ---9----------10-----------4-----------7-------9--------|
         --------------------------------------------------------|
         --------------------------------------------------------|
           Wo sind diese Tage...                            (2x)




           C      Em     G      D      Am     E      D      B

Pre-Chr:  --------0------3------2------0------0------2----------------------|
          -5------0------0------3------1------0------3----------------------|
          -5------0------0------2------2------0------2------4-4-4-4-4-4-4-4-|
          -5------2----- 0------0------2------2------0------4-4-4-4-4-4-4-4-|
          -3------2------2-------------0------2-------------2-2-2-2-2-2-2-2-|
          --------0------3--------------------0-----------------------------|
           Wir hör'n Musik von früher...




       Em                                   C

Chr:  -----------------|-----------------|---------2-2--3-|-3-3-3-3-3-3-3-3-|
      ---------------8-|-8-8-8-8-8-8-8-8-|--1--1-1-1-1--1-|-1-1-1-1-1-1-1-1-|
      -9--9-9-11-11--9-|-9-9-9-9-9-9-9-9-|--0--0-0-0-0--0-|-0-0-0-0-0-0-0-0-|
      -9--9-9-9--9---9-|-9-9-9-9-9-9-9-9-|----------------|-----------------|
      -7--7-7-7--7---7-|-7-7-7-7-7-7-7-7-|--3--3-3-3-3--3-|-3-3-3-3-3-3-3-3-|
      -----------------|-----------------|----------------|-----------------|

         Und immer wieder....



         G                 D                 B
                      (2x)
        |----------------|-----------------|-----------------|
        |----------------|-----------------|-----------------|
        |4-4-4-4-4-4-4-4-|-7-7-7-7-7-7-7-7-|-4-4-4-4-4-4-4-4-|
        |5-5-5-5-5-5-5-5-|-7-7-7-7-7-7-7-7-|-4-4-4-4-4-4-4-4-|
        |5-5-5-5-5-5-5-5-|-5-5-5-5-5-5-5-5-|-2-2-2-2-2-2-2-2-|
        |3-3-3-3-3-3-3-3-|-----------------|-----------------|

         Die sich anfühlen, als...




            Em         C            G           D       B

Verse 2: --------------------------------------------------------|
         ---------8-----------8-----------3-----------7-------7--|
         ------9-----------9-----------3-----------7-------8-----|
         ---9----------10-----------4-----------7-------9--------|
         --------------------------------------------------------|
         --------------------------------------------------------|

          Ich geh' auf meine Straße                         (1x)




             C      Em     G      D      Am     E      D      B

Pre-Chr:  ----------0------3------2------0------0------2---------|
          ---5------0------0------3------1------0------3---------|
          ---5------0------0------2------2------0------2------4--|
          ---5------2----- 0------0------2------2------0------4--|
          ---3------2------2-------------0------2-------------2--|
          ----------0------3--------------------0----------------|

            In welchen Höh'n und welchen...




        Em                                   C

Chr 2: -----------------|-----------------|---------2-2--3-|-3-3-3-3-3-3-3-3-|
       ---------------8-|-8-8-8-8-8-8-8-8-|--1--1-1-1-1--1-|-1-1-1-1-1-1-1-1-|
       -9--9-9-11-11--9-|-9-9-9-9-9-9-9-9-|--0--0-0-0-0--0-|-0-0-0-0-0-0-0-0-|
       -9--9-9-9--9---9-|-9-9-9-9-9-9-9-9-|----------------|-----------------|
       -7--7-7-7--7---7-|-7-7-7-7-7-7-7-7-|--3--3-3-3-3--3-|-3-3-3-3-3-3-3-3-|
       -----------------|-----------------|----------------|-----------------|

         Und immer wieder....



         G                 D                 B
                      (2x)
        -----------------|-----------------|------------------|
        -----------------|-----------------|------------------|
        -4-4-4-4-4-4-4-4-|-7-7-7-7-7-7-7-7-|-4-4-4-4-4-4-4-4--|
        -5-5-5-5-5-5-5-5-|-7-7-7-7-7-7-7-7-|-4-4-4-4-4-4-4-4--|
        -5-5-5-5-5-5-5-5-|-5-5-5-5-5-5-5-5-|-2-2-2-2-2-2-2-2--|
        -3-3-3-3-3-3-3-3-|-----------------|------------------|

         Die sich anfühlen, als...



      C                 Am                Em                D

     -----------------|-----------------|-0-0-0-0-0-0-0-0-|-----------------|
     -5-5-5-5-5-5-5-5-|-----------------|-0-0-0-0-0-0-0-0-|-----------------|
     -5-5-5-5-5-5-5-5-|-2-2-2-2-2-2-2-2-|-0-0-0-0-0-0-0-0-|-7-7-7-7-7-7-7-7-|
     -5-5-5-5-5-5-5-5-|-2-2-2-2-2-2-2-2-|-2-2-2-2-2-2-2-2-|-7-7-7-7-7-7-7-7-|
     -3-3-3-3-3-3-3-3-|-0-0-0-0-0-0-0-0-|-2-2-2-2-2-2-2-2-|-5-5-5-5-5-5-5-5-|
     -----------------|-----------------|-0-0-0-0-0-0-0-0-|-----------------|
        Denn es geht nie vorüber (woooh!)...



          C                 Am                D                B7/D♯

        ------------------|-----------------|---------------------|
        --5-5-5-5-5-5-5-5-|-----------------|---------------------|
        --5-5-5-5-5-5-5-5-|-2-2-2-2-2-2-2-2-|-7-7-7-7-7-7-7-7-----|
        --5-5-5-5-5-5-5-5-|-2-2-2-2-2-2-2-2-|-7-7-7-7-7-7-7-7--7--|
        --3-3-3-3-3-3-3-3-|-0-0-0-0-0-0-0-0-|-5-5-5-5-5-5-5-5--6--|
        ------------------|-----------------|---------------------|




            Am             C              Em             D

Bridge:   --------------|--------------|--------------|------------------|
          --------------|--------------|--------------|------------------|
          --2--2-2-2--0-|--0--0-0-0--0-|--0--0-0-0--0-|------------------|
          --2--2-2-2----|--2--2-2-2----|--2--2-2-2----|--4--4-4-4--4-4---|
          --0--0-0-0----|--3--3-3-3----|--2--2-2-2----|--5--5-5-5--5-5---|
          --------------|--------------|--------------|------------------|
           Wir stoßen an...                                       (2x)




Chr 3:   Palm muting!


           Em                C                 G/B
                       (2x)              (2x)              (2x)
         |-----------------|-----------------|-----------------|
         |-----------------|-----------------|-----------------|
         |-----------------|-----------------|-----------------|
         |-9-9-9-9-9-9-9-9-|-5-5-5-5-5-5-5-5-|-5-5-5-5-5-5-5-5-|
         |-7-7-7-7-7-7-7-7-|-3-3-3-3-3-3-3-3-|-2-2-2-2-2-2-2-2-|
         |-----------------|-----------------|-----------------|

           Und immer wieder...


           D                  B7/D♯

         |-----------------|-----------------|
         |-----------------|-----------------|
         |-----------------|-----------------|
         |-7-7-7-7-7-7-7-7-|-7-7-7-7-7-7-7-7-|
         |-5-5-5-5-5-5-5-5-|-6-6-6-6-6-6-6-6-|
         |-----------------|-----------------|




      C                 Am                Em                D

     -----------------|-----------------|-0-0-0-0-0-0-0-0-|-----------------|
     -5-5-5-5-5-5-5-5-|-----------------|-0-0-0-0-0-0-0-0-|-----------------|
     -5-5-5-5-5-5-5-5-|-2-2-2-2-2-2-2-2-|-0-0-0-0-0-0-0-0-|-7-7-7-7-7-7-7-7-|
     -5-5-5-5-5-5-5-5-|-2-2-2-2-2-2-2-2-|-2-2-2-2-2-2-2-2-|-7-7-7-7-7-7-7-7-|
     -3-3-3-3-3-3-3-3-|-0-0-0-0-0-0-0-0-|-2-2-2-2-2-2-2-2-|-5-5-5-5-5-5-5-5-|
     -----------------|-----------------|-0-0-0-0-0-0-0-0-|-----------------|
      Denn es geht nie vorüber (woooh!)...



          C                 Am                D                B7/D♯

        ------------------|-----------------|---------------------|
        --5-5-5-5-5-5-5-5-|-----------------|---------------------|
        --5-5-5-5-5-5-5-5-|-2-2-2-2-2-2-2-2-|-7-7-7-7-7-7-7-7-----|
        --5-5-5-5-5-5-5-5-|-2-2-2-2-2-2-2-2-|-7-7-7-7-7-7-7-7--7--|
        --3-3-3-3-3-3-3-3-|-0-0-0-0-0-0-0-0-|-5-5-5-5-5-5-5-5--6--|
        ------------------|-----------------|---------------------|
                                                              (2x)



           Em

Outro:   ------------------|
         --8---8--8--8-----|
         --9---9--9--9-----|
         --9---9--9--9-----|
         --7---7--7--7-----|
         ------------------|
Tap to rate this tab
# A B C D E F G H I J K L M N O P Q R S T U V W X Y Z