Song name
# A B C D E F G H I J K L M N O P Q R S T U V W X Y Z

Different Touch - Sraboner Meghgulo tab

Guitar Chords of Sraboner Meghgulo

by Different touch 

Intro :
 
e-8-5-5--------------------|
B----6-8-6-5---------------|
G-----------7-5--5-7--7-7--|
D--------------7-----------|
A--------------------------|
E--------------------------|
                

Dm------------------C-----------Dm
                
Sraboner megh gulo joro holo akashe             

e-------------------------------|
B-------5-----------------------|
G----5-7-7-5--5h7-7-------------|
D---7-------7-------------------|
A-------------------------------|
E-------------------------------|

C-------------------Am-------Dm
                
Ojhore nambe bujhi sraboner jhoraye ||
                
Dm-------------C--------
                
Aaj keno mon udashi hoye
                
Am------------Dm
                
Dur ojana'e chai harate ||
                
Sraboner megh gulo joro holo akashe
                
Ojhore nambe bujhi sraboner jhoraye ||
        
e-----------------------------------------------------8-5-5----------------| 
B-------------------5------------88-66-55----------------6-8-6-5-----------| 
G--7~7~7-5-5h7-7-5-7-7-5-5-5h7-7---------77-55--5-5h7-----------7-5-5-7-77-| 
D---------7-----7-------7----------------------7-------------------7-------| 
A--------------------------------------------------------------------------| 
E--------------------------------------------------------------------------| 

Dm------------------------
                
Kobitar boi shobe khulechi
                
------------------C
                
Himel hawaie mon bhijeche
                
----------------------
                
Janalar pashe chapa madhobi
                
Am-------------------Dm
                
Bagaan bilashi hena duleche ||
                
Aaj keno mon udashi hoye
                
Dur ojana'e chai harate
                
Megheder juddho shunechi
                
Shikto akaash kede choleche
                
Themeche hasher jol'keli
                
Pothiker paaye haata themeche ||
                
Sraboner megh gulo joro holo akashe
                
Ojhore nambe bujhi sraboner jhoraye ||
Tap to rate this tab
# A B C D E F G H I J K L M N O P Q R S T U V W X Y Z