Song name
# A B C D E F G H I J K L M N O P Q R S T U V W X Y Z

Dimitri Vegas - Mammoth tab

Dimitri Vegas & Like Mike - Mammoth

Main Riff
E|-----------------------------7--7--|
B|--5--7--8-----5--5--5--5--5--------|
G|-----------------------------------|
D|-----------------------------------|
A|-----------------------------------|
E|-----------------------------------|

E|--5--------------------------------|
B|-----8--7-----7--7--7--7--7--8--8--|
G|-----------------------------------|
D|-----------------------------------|
A|-----------------------------------|
E|-----------------------------------|

I think this is correct.
Please send me an e-mail for suggestions.
Tap to rate this tab
# A B C D E F G H I J K L M N O P Q R S T U V W X Y Z