Guitaretab - guitar tabs
Song name
# A B C D E F G H I J K L M N O P Q R S T U V W X Y Z

Dinosaur Jr - Gargoyle tab

Intro:

Dm  Am

Verse:

Dm              Am
I see you every once in a while
Dm                 Am
Forget where I was standing stood
Dm               Am
Eyes glazed with apprehension
Dm                 Am
Could it ever have been that good

Pre-Chorus:
[ Tab from: http://www.guitaretab.com/d/dinosaur-jr/116825.html ]
e-|----------------------------------------------|
B-|-5-6-8-6-5-6-5---------5-6-8-6-5-6-8-10-8-6-8-|
G-|---------------7--5-7-------------------------|
D-|----------------------------------------------|
A-|----------------------------------------------|
E-|----------------------------------------------|

Chorus:

e-|-----------------------------------|
B-|-----------------------------------|
G-|-----------------------------------|
D-|-5-5---9---7-----------------------|
A-|-5-5---9---7-----------------------|
E-|-3-3---7---5-----------------------|

The virgin's escaping
Will is fading

Bridge:

I'm not sure about this one, but it must be something like this

G                    F
Everyone tries their hand at love
G                    F
It's just up to hope that all in amour

Tabbed by P.O.
Related for Gargoyle tab
×
Gargoyle