Song name
# A B C D E F G H I J K L M N O P Q R S T U V W X Y Z

Dinosaur Jr - Seemed Like The Thing tab

im pretty sure this is the what it is thoughout the whole song

regular tuning

intro:
---4---4--4-|---4---4--2-|
------------|------------|
--4---4-----|--2---2-----|
-2---2---2--|-2---2---2--|
------------|------------|
------------|------------|x10


---7---7--7-|---5---5--5-|---4---4--4-|---2---2--2-|
------------|------------|------------|------------|
--4---4-----|--2---2-----|--4---4-----|--2---2-----|
-2---2---2--|-2---2---2--|-2---2---2--|-2---2---2--|
------------|------------|------------|------------|
------------|------------|------------|------------|x2

begining intro again x1

after intro:
-----5-4-0--5-4-0-|-----5-4-0--5-4-0-|-4-----|
----2-------------|----2-------------|-5-----|
---2--------------|---2--------------|-------|
--4---------------|--4---------------|--let--|
-5----------------|-5----------------|--ring-|
------------------|------------------|-------|


repeat that whenever you need to and you almost have the whole song
Tap to rate this tab
 
# A B C D E F G H I J K L M N O P Q R S T U V W X Y Z