Song name
# A B C D E F G H I J K L M N O P Q R S T U V W X Y Z

Dinosaur Jr - I Want You To Know tab

-------------------------------------------------------------------------------
		   I Want You To Know - Dinosaur Jr
-------------------------------------------------------------------------------
Tabbed by: Jeff

opening/main riff

     F# G           Gsus2
e|------------------------------------------------------------------------|
B|------------------------------------------------------------------------|
G|----------------6--4----------------------------------------------------|
D|---5/7---7-7----7--7----------------------------------------------------|
A|---5/7---7-7----7--7----------------------------------------------------|
E|---3/5---5-5------------------------------------------------------------|

Opening riff  x4

D                                                                        *
The startled scream or so it seemed I left it clean and found a place to hide

D                                                            *
I love the place, took up space, forgot to face it by myself outside

   *
e|-----------------------------------------------------------------------------|
B|-----------------------------------------------------------------------------|
G|--7--9--------(main riff x2)-------------------------------------------------|
D|-----------------------------------------------------------------------------|
A|-----------------------------------------------------------------------------|
E|-----------------------------------------------------------------------------|

B             D
I want you to know

e|-------------------------------------------|
B|----8--8--8--7---8--8--7-------------------|
G|----7--7--7------7--7----------------------|
D|-------------------------------------------|
A|-------------------------------------------|
E|-------------------------------------------|

*main riff then:

e|---------------------------------------------------------------------------|
B|---------------------------------------------------------------------------|
G|---------------------------------------------------------------------------|
D|---------------------------------------------------------------------------|
A|------------/5---3---------------------------------------------------------|
E|---0--3--------------------------------------------------------------------|

D
I left you there I hid upstairs I had to care 'cause you're the one I see
D
I looked around, I felt the ground, the soul (soil?) not found is hard enough for me

B             D
I want you to know


E
Hey

D              E         D
Did I let it go?

E
Stay with me

D                 E            D
Tell me if it shows

B             D
I want you to know

D
I brought you there I thought you cared not to stare but you just couldn't see
D
It's always you, it's always me, it's always honkin, you deserve it free

B                     D
I want you to know

might add the solo later...

| /  slide up
| \  slide down
| h  hammer-on
| p  pull-off
| ~  vibrato
| +  harmonic
| x  Mute note
===============================================================================
Tap to rate this tab
# A B C D E F G H I J K L M N O P Q R S T U V W X Y Z