Song name
# A B C D E F G H I J K L M N O P Q R S T U V W X Y Z

Dinosaur Jr - I Dont Wanna Go There tab

-------------------------------------------------------------------------------
			     I Don't Wanna Go There - Dinosaur Jr
-------------------------------------------------------------------------------
Tabbed by: Justin Starbuck
Email: justinstarbuck@gmail.com
Tuning: Standard E

e|---------------------------------------------------------------------------|
B|------------------------------0-0--1-0-------------------------------------|
G|---------------------------------------2-0-2-0-----------------------------|
D|-3-3-3-3-3-3--3-3-3-----5-5------------------------------------(x4)--------|
A|-3-3-3-3-3-3--3-3-3-----5-5------------------------------------------------|
E|-1-1-1-1-1-1--1-1-1-----3-3------------------------------------------------|

e|---------------------------------------------------------------------------|
B|---------------------------0h1---0h1---------------------------1-0---------|
G|---------5-5-5----------0h2---0h2---------------5-5-5--------------2-0-----|
D|-3-3-3---5-5-5---5-5-5------------------3-3-3---5-5-5---5-5-5----------(x2)|
A|-3-3-3---3-3-3---5-5-5------------------3-3-3---3-3-3---5-5-5--------------|
E|-1-1-1-----------3-3-3------------------1-1-1-----------3-3-3--------------|
     I don't wanna go there            I don't wanna go there anymore
e|---------------------------------------------------------------------------|
B|------------------------------0-0--1-0-------------------------------------|
G|---------------------------------------2-0-2-0-----------------------------|
D|-3-3-3-3-3-3--3-3-3-----5-5------------------------------------(x4)--------|
A|-3-3-3-3-3-3--3-3-3-----5-5------------------------------------------------|
E|-1-1-1-1-1-1--1-1-1-----3-3------------------------------------------------|
   Cuz I've gone......          
e|---------------------------------------------------------------------------|
B|---------------------------0h1---0h1---------------------------1-0---------|
G|---------5-5-5----------0h2---0h2---------------5-5-5--------------2-0-----|
D|-3-3-3---5-5-5---5-5-5------------------3-3-3---5-5-5---5-5-5----------(x2)|
A|-3-3-3---3-3-3---5-5-5------------------3-3-3---3-3-3---5-5-5--------------|
E|-1-1-1-----------3-3-3------------------1-1-1-----------3-3-3--------------|
 You're the one who told me     You're the one who told me what to say
 Would you come and hold me?    Could you come and show me right away?    
   
e|---------------------------------------------------------------------------|
B|------------------------------0-0--1-0-------------------------------------|
G|---------------------------------------2-0-2-0-----------------------------|
D|-3-3-3-3-3-3--3-3-3-----5-5------------------------------------(x4)--------|
A|-3-3-3-3-3-3--3-3-3-----5-5------------------------------------------------|
E|-1-1-1-1-1-1--1-1-1-----3-3------------------------------------------------|
   Cuz I've gone......          

e|---------------------------------------------------------------------------|
B|------------------------------0-0--1-0-------------------------------------|
G|---------------------------------------2-0-2-0-----------------------------|
D|-3-3-3-3-3-3--3-3-3-----5-5------------------------------------(x4)--------|
A|-3-3-3-3-3-3--3-3-3-----5-5------------------------------------------------|
E|-1-1-1-1-1-1--1-1-1-----3-3------------------------------------------------|
 And the world it spins around you, I believe it
 And the world it really needs you, now I see it
 And the world it spins around you, I believe it
 And the world it really needs you, now I see it

(Solo)

e|---------------------------------------------------------------------------|
B|---------------------------0h1---0h1---------------------------1-0---------|
G|---------5-5-5----------0h2---0h2---------------5-5-5--------------2-0-----|
D|-3-3-3---5-5-5---5-5-5------------------3-3-3---5-5-5---5-5-5----------(x2)|
A|-3-3-3---3-3-3---5-5-5------------------3-3-3---3-3-3---5-5-5--------------|
E|-1-1-1-----------3-3-3------------------1-1-1-----------3-3-3--------------|
     I don't wanna go there            I don't wanna go there anymore

e|---------------------------------------------------------------------------|
B|------------------------------0-0--1-0-------------------------------------|
G|---------------------------------------2-0-2-0-----------------------------|
D|-3-3-3-3-3-3--3-3-3-----5-5------------------------------------(x4)--------|
A|-3-3-3-3-3-3--3-3-3-----5-5------------------------------------------------|
E|-1-1-1-1-1-1--1-1-1-----3-3------------------------------------------------|
   Cuz I've gone......          


e|------------------------------------------0--------------------------------|
B|-------0h1p0--0h1p0--0h1p0--0h1p0---------0--------------------------------|
G|------------------------------------------0--------------------------------|
D|-3-3-------------------------------3------0--------------------------------|
A|-3-3-------------------------------3<=x9)-0--------------------------------|   
E|-1-1-------------------------------1------0--------------------------------|

e|------------------------------------------------0-------------------------|
B|-------0h1p0--0h1p0--0h1p0--0h1p0---------------0-------------------------|
G|------------------------------------------------0-------------------------|
D|-3-3-------------------------------3------3xxxx-0---------(x2)------------|
A|-3-3-------------------------------3<=x5)-1xxxx-0-------------------------|
E|-1-1-------------------------------1------1xxxx-0-------------------------|


e|-------------------------------------------0------------------------------|
B|-------0h1p0--0h1p0--0h1p0--0h1p0----------0------------------------------|
G|-------------------------------------------0------------------------------|
D|-3-3-------------------------------3-------0------------------------------|
A|-3-3-------------------------------3<=x9)--0------------------------------|
E|-1-1-------------------------------1-------0------------------------------|
                   Should I walk alone?
                   Should I take it home? Should I tear
                   It's not gonna go
                   It's not gonna go well
e|---------------------------------------------------------------------------|
B|------------------------------0-0--1-0-------------------------------------|
G|---------------------------------------2-0-2-0-----------------------------|
D|-3-3-3-3-3-3--3-3-3-----5-5------------------------------------(x4)--------|
A|-3-3-3-3-3-3--3-3-3-----5-5------------------------------------------------|
E|-1-1-1-1-1-1--1-1-1-----3-3------------------------------------------------|
   Cuz I'm gone......          

    
e|---------------------------------------|
B|---------------------------------------|
G|---------------------------------------|
D|----(Solo Over)--3--------5------------|
A|-----------------3---and--5------------|
E|-----------------1--------3------------|

| /  slide up
| \  slide down
| h  hammer-on
| p  pull-off
| ~  vibrato
| +  harmonic
| x  Mute note
===============================================================================
Tap to rate this tab
 
# A B C D E F G H I J K L M N O P Q R S T U V W X Y Z