Song name
# A B C D E F G H I J K L M N O P Q R S T U V W X Y Z

Dinosaur Jr - Said The People tab

Dinosaur Jr. - Said The People
From the album 'Farm' (2009)

Capo 7th fret, standard tuning

---

Interesting note: this song has an indentical chorus to 'Pieces' on the same album (both use
the same chords in the same order, capo'd at 7), just played at different speeds and with
a few small changes. there's even a couple of parts in the solos for both songs,
about 3-4 seconds long, that are used in both songs (the opening of the Pieces solo for example,
makes an appearance in one of the solos here). Freaky! :P

I'm pretty sure the solos were recorded without a capo, so there's one or two short parts where
the notes are below the capo. You'll see it on the tab when it comes to it, but i'll tab both
the original parts, and the same part an octave up so it's playable if you're playing the
song all the way through and want to play it as close as possible.

---


==intro riff

E|-0~-------------------------------|
B|-1~----1/3\1-----0~---------------|
G|-2~----2/5\2--0--0~---------------| (4th time through, miss out the last 3 notes when leading
D|-2~----2/5\2-----2~---------------| into the verse. also, obviously don't play the first
A|-0~--------------3~---------0---0-| chord after the first time through. common sense, go!)
E|------------------------0-3---3---|


==verse
there's slight variations on this part throughout the song, so feel free to mix it 
up a little here.
really light strumming, there's some notes that are almost silent.

E|-----0----------------------1--1---1-1-0------0--0--------0---0--| 
B|-1---1-1--------1--1--1-----3--3---3-3--------1--1--------3---3--|
G|-2-------2------0--0-----------2---2-2-------2--------------4----|
D|-2-----------------2------0-------------0h3-----3---3/5--3-------|
A|------------0h3----3---------------------------------------------|
E|-----------------------------------------------------------------|

if it makes things easier, here's the chords used, in order
E|---|----|-1-|-0-|-0-|
B|-1-|--1-|-3-|-1-|-3-|
G|-2-|--0-|-2-|-2-|-4-|
D|-2-|--2-|-0-|-3-|-5-|
A|---|--3-|---|---|---|
E|---|----|---|---|---|

lead into the chorus with this:
E|---------0-----------3------|
B|-------1---1-------3---3----|
G|-----2-----------4-------4--|
D|---3-----------5------------|
A|----------------------------|
E|----------------------------|


==chorus
it's hard to prescisely tab strum patterns, but this is about right:
since it looks a bit cluttered, the vertical lines seperate chord changes.
E|-0--0----0-0-|----0----0---0-|----3----3---3-|-1--1----1-0---------|
B|-1--1----1-1-|----1----1-1-1-|----0----0-0-0-|-3---3------3-1------|
G|-2----2---2--|-0-----0---0---|-----------0---|-2--------------2-0--|
D|-3----3---3--|-2-----2---2---|-0-----0-------|-0-------------------|
A|-------------|-3-----3-------|-2-----2-------|---------------------|
E|-------------|---------------|-3-----3-------|---------------------|

when the lyrics go to "save me", change the first chord (xx3210) to xx3213,
and the third chord (320003) to 320033 (read in order like EADGBE).

==epic solo (3:05-4:42)
(not relative to capo - fret numbers used)

3:05
E|----------15b~~--15b-15-12----12-------------------------15-15-15-15----15----15----15----------|
B|---------------------------15----15b~~-15b-15~--13h15-12-12-12-12-12h13-12h13-12h13-12h13p12----|
G|-14b-14-12-----------------------------------------------------------------------------------14b|
D|------------------------------------------------------------------------------------------------|
A|------------------------------------------------------------------------------------------------|
E|------------------------------------------------------------------------------------------------|
|
|3:15
E|------------------------------------------------------------------------------|
B|------------------------------------------------------------------------------|
G|-14b-14-12----12h14-12---12-12\11---------------------------------------------|
D|-----------14---------------------12---12-12h14-12~---9h12p9------------------|
A|---------------------------------------------------------------10-9h10-10/12~-|
E|------------------------------------------------------------------------------|
|
|3:22
E|------------------------------------------------------------------------------------------------|
B|---------------------------------------------------------15-------12-13-12h13p12------15----15b-|
G|-------------------------------------12---14b-r-14b-r-14b--14b~------------------12------12-----|
D|-------------------------12----12h14------------------------------------------------------------|
A|-------10-10-12p10-12/14----14------------------------------------------------------------------|
E|-10h12------------------------------------------------------------------------------------------|
|
|3:30
E|-------------------------------------------------------------------------------|
B|-15-13-12----------------------------------------------------------------------|
G|----------12--12\11--11-11\9--9-9p0----------------9---------------------------|
D|------------------------------------12-9--12p9--12b----------------------------|
A|-----------------------------------------------------12b---12b-12b-12brp10-----|
E|---------------------------------------------------------------------------h12-|
|
|3:35
E|-------------------------------------------------15b-r15~--|
B|-10/12-12h13p12~---12h13-13/15~--12h13p12--12h13-----------|
G|-----------------------------------------------------------|
D|-----------------------------------------------------------|
A|-----------------------------------------------------------|
E|-----------------------------------------------------------|
|
|3:41
E|-14-14-12-14-12-12h14p12----12-----------------12------15b--15b--15~-|
B|------------------------h15----15b-13-12-13-15---15-13---------------|
G|---------------------------------------------------------------------|
D|---------------------------------------------------------------------|
A|---------------------------------------------------------------------|
E|---------------------------------------------------------------------|
|
|3:45
E|-15~-15-14-12-----12------------------12----------------------------------------|
B|--------------15b----15-12-15b--15~------15-12-----12-15------------15----------|
G|-----------------------------------------------14b-------14b-14b~------14b-14b~-|
D|--------------------------------------------------------------------------------|
A|--------------------------------------------------------------------------------|
E|--------------------------------------------------------------------------------|
|
|3:51
E|--------------------------------17b--17b-----15-15----15--------------------------15------------|
B|-15-----------------17----19--------------17-------17----17-15-15\13--13-13-13\12-12h13p12h13p12|
G|---14r--12-14-14/16----16----16-----------------------------------------------------------------|
D|------------------------------------------------------------------------------------------------|
A|------------------------------------------------------------------------------------------------|
E|------------------------------------------------------------------------------------------------|
|
|3:59
E|-------------------------------------12-----12-----12h15p12h15p12----12h15p12-----12h15p12-|
B|-------------------12h13-12-13-13/15----15b----15b----------------15b----------15b---------|
G|-14b-rp12----12-14-------------------------------------------------------------------------|
D|---------h14-------------------------------------------------------------------------------|
A|-------------------------------------------------------------------------------------------|
E|-------------------------------------------------------------------------------------------|
|
|4:03
E|-----12-15-15b~---15-14-14------------------------------15----15----------------|
B|-15b----------------------h17-17-17-17\15-15\13--13\12--12h13-12h13-12----------|
G|------------------------------------------------------------------------14b-14b-|
D|--------------------------------------------------------------------------------|
A|--------------------------------------------------------------------------------|
E|--------------------------------------------------------------------------------|
|
|4:09
E|------------------------------------------------------------------------|
B|-15---------------------------------------------------------------------|
G|---14b--r-p12----12h14p12-12-12\9p0-------------------------------------|
D|------------h14--------------------12\10--9-10-12~--------12-/14\12-----|
A|-----------------------------------------------------10~------------10~-|
E|------------------------------------------------------------------------|
|
|4:17 - as mentioned above, there's a few notes in this bit that're below the capo.
|       i'll tab it an octave up (same notes, higher) so you can keep the capo on during solos and
|       still play the song as close as possible. the original parts are in [brackets].
E|----------------------------------------------------------------------------|
B|----------------------------------------------------------------------------|
G|----------------------0h9-9p0-9------------------------------12~--------11~-|
D|-------------------0h9------------------------------12-12h14------12h14-----|
A|-10-10-10\9--9---------5h7-7p5-7]---10h12-12p10-12/14-----------------------|
E|---------------10--[5h7-----------------------------------------------------|
|
|4:26 - i'm pretty sure these parts are the on the right string, but the capo being there makes
|       the bend at the start a little tricky
E|-----------------------------------------------------------------------------------|
B|-0h8p0-----------------------------------------------------------------------------|
G|------9b-r0h9--9/12-11-------------------------------------0h9-0-------------------|
D|-----------------------12-12\9--9-9p0------------------0h9-------------------------|
A|--------------------------------------10-9h10p9------------[5h7-5~]-9h10-9---------|
E|-----------------------------------------------10/12~--[5h7---------------10-10/12-|
|
|4:37
E|-----------------------------------12-------12-------15b-15~-|
B|--------------------------------------15b~----15b-12---------|
G|-----------------12-14-14brp12-14b---------------------------|
D|-----------12h14---------------------------------------------|
A|--10-12/14---------------------------------------------------|
E|-------------------------------------------------------------|



awesome. then there's the chorus and verse and whatever a few times, but then, 
suddenly, more solos!
starting to regret tabbing this. it's november rain x10



==solo 2 (5:57-7:37)

E|-12----12-------------12----12-----------------------------------------------15b-15~-|
B|---15b---15b-15b-r~-----15b---15b-15b-15-12------------------------------------------|
G|--------------------------------------------14b~~--14b-rp12----12h14~-14b-12---------|
D|-----------------------------------------------------------h14-----------------------|
A|-------------------------------------------------------------------------------------|
E|-------------------------------------------------------------------------------------|
|
|6:09
E|-15-14-12----12---------------------------------12----------15-------|
B|---------15b----15-12------12-13-12h13-13/15~------15-13-12-12h13p12-|
G|-----------------------14b-------------------------------------------|
D|---------------------------------------------------------------------|
A|---------------------------------------------------------------------|
E|---------------------------------------------------------------------|
|
|6:14
E|------------------------------------------------------------------------------------------------|
B|---------15-----15------------------------------------------------------------------------------|
G|-14b-14b----14b----14brp12----12-12-------------------------------------------------------------|
D|---------------------------14------h14-14\12-12\9--9-10-10*br-9----12----9h12p9----9------------|
A|----------------------------------------------------------------10----10-------h10---10-9h10-12b|
E|------------------------------------------------------------------------------------------------|
|
|6:21
E|-----------------------------------------------------------------------------------------------|
B|-------------------------------------------------------------------15br--13h15-12--15-13h15-12-|
G|-------------------------------------------------------11h12-12/14-----------------------------|
D|-------------------------------------------------12h14-----------------------------------------|
A|-12~---12b--10h12-9------9--------------10-12/14-----------------------------------------------|
E|----------------------10---10---0-10/12--------------------------------------------------------|
|
|6:29
E|------------------------------------------------------------------------------------------------|
B|-13p12------------15----------------------------------------------------------------------------|
G|------14brp12-14b----14r-p12----12/14-12p11----11~------9-9brp0-9p0-----------------------------|
D|----------------------------h14-------------12------/12-------------9-10p9-10/12----------------|
A|--------------------------------------------------------------------------------------10h12-10~-|
E|---------------------------------------------------------------------------------10h12----------|
|
|6:39
E|-------------------------------------------------15b-15~~-15~-15b-15b-15~~15~-|
B|------------------------------------------------------------------------------|
G|-12b---12~--11-9b-rp0---0------------------11-12------------------------------|
D|---------------------h9---10-9-10/14-12-14------------------------------------|
A|------------------------------------------------------------------------------|
E|------------------------------------------------------------------------------|
|
|6:50
D|-14---------15----------------------------------------------------------------------------------|
A|----15b-15b----15b--15b-15~--13p12h13p12--------------------------------------------------------|
E|-----------------------------------------14b--12~--12-12-12--12-14/16-12~--12-12-12--14-14/16---|
D|----------------------------------------------------------------------------------------------19|
A|------------------------------------------------------------------------------------------------|
E|------------------------------------------------------------------------------------------------|
|
|7:00
E|--------------------17b-15----15-17-15-15\14-15p14----14----------------------------------------|
B|---------------------------17----------------------15----15~--15-15\13--13-12-15~--15~-15b-15-13|
G|------------------------------------------------------------------------------------------------|
D|-19\17-17-19-17\16------------------------------------------------------------------------------|
A|------------------------------------------------------------------------------------------------|
E|------------------------------------------------------------------------------------------------|
|
|7:09
E|----------------------------------------------------------------------|
B|-12h13p12----------15-------------------------------------------------|
G|----------12h14-14b---14rp12----12\11-11------------------------------|
D|----------------------------h14-------------12-14brp12----12-12h14b---|
A|-----------------------------------------/14----------h14---------^---|
E|------------------------------------------------------------------^---|
|                                                                   ^slow bend, then slowly release
|7:17
D|------------------------------------------------------------------------------------------------|
A|------------------------------------------------------------------------------------------------|
E|------------------------------------------------------------------------------------------------|
D|--r--br-p12---12-14-12h14p12----12\9~--p0-h9-10--9h10p9h10p9h10p9h10p9--------------------------|
A|-----------h14--------------h14---------------------------------------9h10p9h10p9h10p9h10p9h10p9|
E|------------------------------------------------------------------------------------------------|
|
|7:24
E|------------------------------------------------------------------------|
B|--------0-------------------------------------------------------15------|
G|------9---9/11-12/14--16-b--r----16/17--16--14brp12h14brp12-14b----14b--|
D|----9-------------------------------------------------------------------|
A|--0---------------------------------------------------------------------|
E|------------------------------------------------------------------------|
|
|7:29
E|-15b--15-12----12----------------------------------------------------|
B|------------15----15b-r-12----13-12----------------------------------|
G|---------------------------14-------14-11-12-11----9b------r-b-r---b-|
D|------------------------------------------------12-------------------|
A|---------------------------------------------------------------------|
E|---------------------------------------------------------------------|


*collapses*

enjoy! if you learn this all, props to you. let me know if
you find anything horrendously wrong with the tab, but i think
i managed to get it down pretty close.

|--------------------------------------------------------
|p - pull-off
|h - hammer-on
|/ - slide up (\ = down)
|b - bend; release bend before next note, unless...
|r - release bend after holding it for a little
|~ - vibrato
|* - pinch harmonic
|x - muted string strum
|--------------------------------------------------------
Tap to rate this tab
 
# A B C D E F G H I J K L M N O P Q R S T U V W X Y Z