Song name
# A B C D E F G H I J K L M N O P Q R S T U V W X Y Z

Dinosaur Jr - Budge tab

Budge - Dinosaur Jr

Verse 
-0-0-0-0-0-0-0-0-0-0-0-0-0-0-0-0-0-0-0-0-|
-0-0-0-0-0-0-0-0-0-0---------------------|
-4-4-4-4-4-6-6-6-6-6-2-2-2-2-2-2-2-2-2-2-|
-4-4-4-4-4-6-6-6-6-6-0-0-0-0-0-0-0-0-0-0-|
-2-2-2-2-2-4-4-4-4-4---------------------|
-----------------------------------------|
repeat as necessary


Chorus
-0-0-0-0-0-0--0-0-0-0-0-0--0----0-0-0-0-0-0-0-0-|
--------------------------------3-3-3-3-3-3-3-3-|
-4-4-4-4-4-6--4-4-4-4-6-7--4--------------------|
--------------------------------0-0-0-0-0-0-0-0-|
-0-0-0-0-0-0--0-0-0-0-0-0--0--------------------|
------------------------------------------------|


-0-0-0-0-0-0--0-0-0-0-0-0--0----0-0-0-0-0-0-0-0-|
--------------------------------3-3-3-3-3-3-3-3-|
-4-4-4-4-4-6--4-4-4-4-6-7--6--------------------|
--------------------------------0-0-0-0-0-0-0-0-|
-0-0-0-0-0-0--0-0-0-0-0-0--0--------------------|
------------------------------------------------|

hey_627@hotmail.com
Tap to rate this tab
# A B C D E F G H I J K L M N O P Q R S T U V W X Y Z