Song name
# A B C D E F G H I J K L M N O P Q R S T U V W X Y Z

Dinosaur Jr - Tarpit tab

Dinosaur Jr.
"Tarpit"
from the album 'You're Living All Over Me'

this is one of my favourite songs ever. and it's very easy. i've tried my best on the
lyrics, so they may not be 100% correct as it's hard to hear J on some parts in this
song.

Intro
e|----------------------------|
B|----------------------------|
G|----------------------------| x4
D|-11-11-11-12-12-12-12-7-7-7-|
A|-0--0--0--0--0--0--0--0-0-0-|
E|----------------------------|

---------5-5-XXX      -------|
-7-7-7-7-5-5-XXX      -------|
-6-6-6-6-6-6-XXX  x3  -4-4/6-|
----------------      -2-2/4-|
----------------      -------|
----------------      -------|

Verse - just G and C chords repeated. start with a clean sound, then eventually add 
and a heavy wah sounds which ends the song is chaotic noise.

-3-      -0-|
-3-      -1-|
-0- x10  -0-| x10
-0-      -2-|
-2-      -3-|
-3-      ---|

Outro - use that heavy wah sound.
----      ---|
----      ---|
-10- x10  -9-|  x10
-10-      -9-|
-8--      -7-|
----      ---|

Paved my Fate
Paved my Fate
Paved my Fate
Paved my Fate...
Tap to rate this tab
# A B C D E F G H I J K L M N O P Q R S T U V W X Y Z