Song name
# A B C D E F G H I J K L M N O P Q R S T U V W X Y Z

Dinosaur Jr - Get Me tab

Dinosaur Jr.
"Get Me"
`Where You Been?' album

strum these...
G(330023) F#/G(223442)    C(01023x)     D(2320xx)  

Bm(777997)      C (01023x)       
I don't see you, I won't call you.  I don't know enough to stall you.  Is it me 

      Am(01220x)          C         D
or is it all you?  Guess it's on and on.


verse
E--3---3---0--------0-------------2--------3------------------------0--2--|
B--0---0---1----------3-----------3----------1---1---------1-0------1--3--|
G--0---0---0------0-----0-0----0--4------0-----0-------0-2-----2----0--2--|
D--0---0---2----------------------4--0---------------------------2--2--0--|
A--2---x---3--3/5------------2----2----3------------0---------------3--x--|
E--3---2---x----------------------x---------------------------------x--x--|

   G F#/G  C                      Bm                     Am         C  D
 

E------------------|
B-----0h1p0--------|
G-0-2--------2-----|
D--------------2---|
A------------------|
E------------------|

On a day, maybe I'd show you 
But it's the least of all I go through
But the thing is I don't know you
And it's on and on             


heavy distortion after first verse -

G D G C 
(while strumming C alternate 2nd string 1st fret on and off)


Trembling words 
Don't make my eyes close
And if anyone then you'd know
I can't find out 'cause it won't show
And it's on and on
Every dream is shot by daylight
And I pray that maybe you're right
But if you don't, maybe I might
Cause it's on and on


   1st solo

     (1:11)
   E-------------------------------------------------------------10-12-10-|
   B--------8-5------------------------------3h5\7-8\10-8--10\12----------|
   G--7b--r-----7-4-------------------4h5-4-------------------------------|
   D----------------7-5-7b-r-7-7b-rp5-------------------------------------|
   A----------------------------------------------------------------------|
   E----------------------------------------------------------------------|

                     (1:20) ~ = feedback
   E-----------------------15---------------------------------------------|
   B-13-12--13-13\15--15b------15r---------15-----------------------------|
   G----------------------------------14b------14rp12--14b--r-12~~~~~~~---|
   D----------------------------------------------------------------------|
   A----------------------------------------------------------------------|
   E----------------------------------------------------------------------|


   When it takes too long I lose it
   I'll just hang while you abuse it
   If you knew then why'd you choose it
   Cause it's on and on 


Play this during this next part:
    E--3------------3--1--0------|
    B--1-----------1---1--0------|
    G--0----------0--------------|
    D----------------------------|
    A----------------------------|
    E----------------------------|
     strum        rake


   You're not gonna get me through this are you
   You're not gonna get me through this are you
   Anytime I'm there to show you 
   But if it takes too long I know you
   Out the door just leavin' me screwed
   And it's on and on
   Everytime I try to fight it
   It's so hard to seem excited
   And if you don't turn I'll bite it
   And it's on and on
   You're not gonna get me through this are you
   You're not gonna get me through this are you

   2nd solo-

   (2:57)
   E--5-------------------------------------------------------------------|
   B--5-7-5-7-5--------------------------7-5-5\10--10--10-10-10--8-8-8-5--|
   G--5-7-5-7-5-7p5-7b-rp5---5-7b-r-5-5--7-5------------------------------|
   D-----------------------7----------------------------------------------|
   A----------------------------------------------------------------------|
   E----------------------------------------------------------------------|

                                      (3:10) 
   E----------------------------------------------------------------------|
   B-5-6-5-6-5-----5-6-5--------------------------------------------------|
   G-----------5-5-------5--b--r--5-5p4-0----0---0---0--------------------|
   D--------------------------------------5----5---5---5-2-3p2-3p2-3\5/3p2|
   A----------------------------------------------------------------------|
   E----------------------------------------------------------------------|

                                           (3:18) 
   E----------------------------------------x-----------------------------|
   B----------------------------------------x-x---------------------------|
   G----------------------5---5-7-7b-r-p5/4---x-\9--10-9--10-9-10-9-10\12-|
   D-3p2--------2-3p2-3\7---7---------------------------------------------|
   A-----3-3--3-----------------------------------------------------------|
   E----------------------------------------------------------------------|

                                            (3:24)
   E(12)------------------------------------------------------------------|
   B-12-------------------------------------12h13p12----------------------|
   G----12-12-12-12\14-12-14-12-14-12-14-12----------12-13-12-13-13-13p11-|
   D----------------------------------------------------------------------|
   A----------------------------------------------------------------------|
   E----------------------------------------------------------------------|

                                   (3:30)
   E----------------------------------------------------------------------|
   B-----------------------------------------------12h13-12----------15b--|
   G-10-11-13p11p10--------------------10\12-14-12----------12---13-------|
   D----------------10-10b-r-10-10--10------------------------------------|
   A----------------------------------------------------------------------|
   E----------------------------------------------------------------------|

                                 (3:35)
   E--------------------------------\12-12-12-12-12-12-12h15b------r------|
   B-r-------------------------10/-----------------------------------12~~~|
   G---13-13-13-13-13\11-10h11-10/----------------------------------------|
   D----------------------------------------------------------------------|
   A----------------------------------------------------------------------|
   E----------------------------------------------------------------------|

                                         continue with this during verse

   (3:43-3:57 in background. ) gtr2     (3:43)    (lyrics are same as above)
   E-------------------------------15-15-14-------------------------------|
   B~~^^^^h15~~~~~~~~~~~~~~~~~~-------------15---------------8---10-------|
   G---------------------------------------------------7-9p7---7----7-7-5-|
   D--------------------------------------------11b--r--------------------|
   A----------------------------------------------------------------------|
   E----------------------------------------------------------------------|

         [harm.]                      (3:51)
   E----------------------------------------------------------------------|
   B--------------------------------------------------------------13-13-12|
   G-4------------------------------------------------------------12-12---|
   D---5--5-5-5\7----------------------(7)\9-----9-10p9\12~~~h14----------|
   A---------------5h6h7p5--------------------10--------------------------|
   E------------------------\8--\7----------------------------------------|

                                                 (3:57)
   E----------------16b--r------------------------------------------------|
   B-13-p12p10------------------------------------------------------------|
   G-----------h12--------------------------------------------------------|
   D----------------------------------------------------------------------|
   A------------------------15p14h15p14--10\12/10--/9---------------------|
   E---------------------------------------------------10\12/10-p0-h\(14)/|

           j.mascis**                      (4:04)  3rd solo-
   E----------------------------------------15b---------------------------|
   B---8--7-7-7h8-8\10-10-10/--------x--x---15b-15b-r-13--13-13-15b-15-13-|
   G-x------------------------(7)\12-x--x---------------------------------|
   D---------------------------------x--x---------------------------------|
   A----------------------------------------------------------------------|
   E----------------------------------------------------------------------|

                                             (4:10)
   E-15--17-15-17-15b--r-12-12-12h13-h15-13-12----------------------------|
   B-15b---------------------------------------x-13-13-13p12-13\15/13p12--|
   G----------------------------------------------------------------------|
   D----------------------------------------------------------------------|
   A----------------------------------------------------------------------|
   E----------------------------------------------------------------------|

                                               (4:16)

   E----------------------------------------------------------------------|
   B-13p12-13\15/13-12-13-13-13-13/12-------------------------------------|
   G----------------------------------13-13/12-11-x-11-10h11--10-11\13-13-|
   D----------------------------------------------------------------------|
   A----------------------------------------------------------------------|
   E----------------------------------------------------------------------|

                                     (4:20)

   E----------------------------------------------------------------------|
   B----------13----15-13-----15-13-----15--------------------------------|
   G-15-13-15----13--------13--------13----13-13/11--10h11-10-------------|
   D----------------------------------------------------------10-10-10\12-|
   A----------------------------------------------------------------------|
   E----------------------------------------------------------------------|

              (4:24)

   E----------------------------------------------------------------------|
   B----------------------------------------------------------------------|
   G----------------------------------------------------------------------|
   D-10-12-10------7---7/5-5-5-----5-5\7-5---------3---3---2h3-2h3-2------|
   A----------12/----9---------5h7---------7-5-x-0---0---0-----------3-\5-|
   E----------------------------------------------------------------------|

        (4:31)

   E-------------------------------------5-5-5-5-5-5--(5)-----------------|
   B-----------------1---1p0-------------5-5-5-5-5-5-6-5-6\8--b--8b-r8-6--|
   G---------------0---0------5-5\7--7-7----------------------------------|
   D---------0-2-3--------------------------------------------------------|
   A-/3--3-3--------------------------------------------------------------|
   E----------------------------------------------------------------------|

                                                  (4:45)        

   E----------------------------------------------------13-12-13-13\15-13-|
   B-8-6-8b--r-8-8\10-10-10\13-10-13b-r-10-13b-r----13--------------------|
   G----------------------------------------------------------------------|
   D----------------------------------------------------------------------|
   A----------------------------------------------------------------------|
   E----------------------------------------------------------------------|

                                (4:49)

   E-12h13\15--15-15-13-12-13-15p13p12-13---------------------------------|
   B--------------------------------------15b-r-13----13/12----12----12---|
   G-----------------------------------------------14-------13----13----13|
   D----------------------------------------------------------------------|
   A----------------------------------------------------------------------|
   E----------------------------------------------------------------------|

                             [random harm.](4:57)

   E-----------------------------x---x---x--------------------------------|
   B---------------------------x-x-x-x-x-x--------------------13-13--15-13|
   G--11/10--------------------x-x-x-x-x-x--13h15-15-13\15-15-------------|
   D--------10b----10/9--------x---x---x----------------------------------|
   A--------------------10-10---------------------------------------------|
   E----------------------------------------------------------------------|

                          (5:02)                               

   E---------------------------17-20-17----17-----------------------------|
   B-15-17--17-20b-r-b-r-20-20----------20----20-17-20b--20h21p20p17----17|
   G-----------------------------------------------------------------20---|
   D----------------------------------------------------------------------|
   A----------------------------------------------------------------------|
   E----------------------------------------------------------------------|

                                      (5:07) 

   E----------------------------------------------------------------------|
   B----17------------------------------------17-18-17----17--------------|
   G-20----20-20b---20b--r-18-20-18--18-18h20----------20----20-18-20-18--|
   D----------------------------------------------------------------------|
   A----------------------------------------------------------------------|
   E----------------------------------------------------------------------|

     (5:10)

   E----------------------------------------------------------------------|
   B-20p17p15----15------20p17p15----15-----20p17p15-17-15b-r-b--r-17-18--|
   G----------18----18------------18----18--------------------------------|
   D----------------------------------------------------------------------|
   A----------------------------------------------------------------------|
   E----------------------------------------------------------------------|

                                    (5:18)

   E----------------------------------------------------------------------|
   B-18\20-18-17-18-17--17-17h18-17-15b----r-13-15-13-15b--r-b--r--15b(15)|
   G----------------------------------------------------------------------|
   D----------------------------------------------------------------------|
   A----------------------------------------------------------------------|
   E----------------------------------------------------------------------|

                                            (5:24)

   E--20b---20b-20---20b-r-20-20b-r-20~~~~~~~19-20-19----20-19-17---------|
   B--------------------------------------------------------------20b-r-r-|
   G----------------------------------------------------------------------|
   D----------------------------------------------------------------------|
   A----------------------------------------------------------------------|
   E----------------------------------------------------------------------|

                                                 (5:32)

   E-17----17------19-17----17--------------------------------------------|
   B----20----20---------20----20-18-17-18--------------------------------|
   G---------------------------------------18-18---18-17---17-17-17/------|
   D----------------------------------------------------------------------|
   A----------------------------------------------------------------------|
   E----------------------------------------------------------------------|

     (5:35) 
           feedback...
   E----------------------------------------------------------------------|
   B----------------------------------------------------------------------|
   G-\10-11-11p10h11p10~~~~~~~~~~~~~~~~~----------------------------------|
   D----------------------------------------------------------------------|
   A----------------------------------------------------------------------|
   E----------------------------------------------------------------------|

    (5:41)      

   E--8h10p9p8---8-----------------------------------|
   B-----------10---10--10p8-10p8----8---------------|
   G------------------------------10---10p8h10p8-----|
   D-------------------------------------------------| end.
   A-------------------------------------------------|
   E-------------------------------------------------|
Tap to rate this tab
 
# A B C D E F G H I J K L M N O P Q R S T U V W X Y Z