Song name
# A B C D E F G H I J K L M N O P Q R S T U V W X Y Z

Dinosaur Jr - Blowing It tab

Blowing It by Dinosaur Jr, submitted by Leosten.

Here's my tab of Blowing It from Dinosaur Jr, 
I couldn't find any text only exact one so I made 
mine by looking closely at J Mascis playing live 
and by looking at other tabs, and I think it's pretty correct.

Standard Tuning

Intro
e|---------------------------|
B|------3-----3--0-----1-----|
G|----0-----0----0-----0-----|
D|--4-----4------2-----2-----|
A|---------------3-----3-----|
E|---------------------------|

listen to the song for the strumming of the verse.

Verse

    C       D
e|--0-------2------------------------------------------------------|
B|--1-------3------------------------------------------------------|
G|--0-------0------------------------------------------------------|
D|--2-------0------------------------------------------------------|
A|--3-------x------------------------------------------------------|
E|--x-------x------------------------------------------------------|
      

Here's the problematic part, I think 
this is pretty correct, that's how 
J Mascis plays it live.
Once again, listen to the song for the strumming.

Chorus

    G     D
e|--3-----7-----7-----7--------------0--------------------------------------|
B|--3-----8-----8-----8--------------0--------------------------------------|
G|--0-----7-----7-----9--------------0--------------------------------------|
D|--0-----7-----7-----9--------------2--------------------------------------|
A|--2-----x-----7-----x--------------3--------------------------------------|
E|--3-----x-----x-----x--------------x--------------------------------------|

Enjoy!

Tap to rate this tab
# A B C D E F G H I J K L M N O P Q R S T U V W X Y Z