Song name
# A B C D E F G H I J K L M N O P Q R S T U V W X Y Z

Dinosaur Pile-up - Hey You tab

Hey you by Dinosaur Pile-up - from the album Growing Pains

main bit through the verses

e-----------------------------------------------------------------------|
b-----------------------------------------------------------------------|
g--6-------6--------6---------6---------2-------2-------2-------2-------|
d------7-------7---------7---------7--------2-------2-------2-------2---|
a-----------------------------------------------------------------------|
d----7---7---7---7----7----7----7-----7---4---4---4---4---4---4---4---4-|

e-----------------------------------------------------------------------|
b------------------3----------------------------------------------------|
g--1-------1-----------1-------1--6-------6--------6-------6------------|
d------2-------2-----------2----------7--------7-------7-------7--------|
a-----------------------------------------------------------------------|
d----2---2---2---2---2---2---2------7---7----7---7---7---7---7---7------|

"I get up at ten...."
e-----------------------------------------------------------------------|
b-----------------------------------------------------------------------|
g--6-------6--------6---------6---------2-------2-------2-------2-------|
d------7-------7---------7---------7--------2-------2-------2-------2---|
a-----------------------------------------------------------------------|
d----7---7---7---7----7----7----7-----7---4---4---4---4---4---4---4---4-|

          "Man I'm tired...."
e-----------------------------------------------------------------------|
b------------------3----------------------------------------------------|
g--1-------1-----------1-------1--6-------6--------6-------6------------|
d------2-------2-----------2----------7--------7-------7-------7--------|
a-----------------------------------------------------------------------|
d----2---2---2---2---2---2---2------7---7----7---7---7---7---7---7------|

"I leave my room and..."
e-----------------------------------------------------------------------|
b-----------------------------------------------------------------------|
g--6-------6--------6---------6---------2-------2-------2-------2-------|
d------7-------7---------7---------7--------2-------2-------2-------2---|
a-----------------------------------------------------------------------|
d----7---7---7---7----7----7----7-----7---4---4---4---4---4---4---4---4-|

          "Man I'm tired...."
e-----------------------------------------------------------------------|
b------------------3----------------------------------------------------|
g--1-------1-----------1-------1--6-------6--------6-------6------------|
d------2-------2-----------2----------7--------7-------7-------7--------|
a-----------------------------------------------------------------------|
d----2---2---2---2---2---2---2------7---7----7---7---7---7---7---7------|

This is then repeated for the bulk of the verses

Until:
"And I......"
e--------------------------------------------------|
b--------------------------------------------------|
g--11----------11----------11----------11----------|
d--------12----------12----------12----------12----|      part 1
a--------------------------------------------------|
d-----12----12----12----12----12----12----12----12-|

e--------------------------------------------------|
b--------------------------------------------------|
g---2-------2-------2-------2----------------------|
d-------2-------2-------2-------2------------------|      part 2
a--------------------------------------------------|
d-----4---4---4---4---4---4---4---4----------------|

e--------------------------------------------------------------------|
b-----------------------------------6-------6--------6-------6-------|
g----1-------1-----------1-------1------7--------7-------7-------7---| part 3
d--------2-------2---2-------2---------------------------------------|
a-------------------------------------7---7----7---7---7---7---7---7-|
d------2---2---2---2---2---2---2-------------------------------------|
repeat these three  parts again


then it breaks into distortion

"Hey you, are you fond of talking.  Hey you, are you tired of being alone"
e------------------------------------------------------------------------|
b------------------------------------------------------------------------|
g------------------------------------------------------------------------|
d--7~------------------------4~-----------2~---------12~-------------7~--|
a--7~------------------------4~-----------2~---------12~-------------7~--|
d--7~------------------------4~-----------2~---------12~-------------7~--|

"Hey you, are you fond of walking.  Hey you, are you tired of being alone"
e------------------------------------------------------------------------|
b------------------------------------------------------------------------|
g------------------------------------------------------------------------|
d--7~------------------------4~-----------2~---------12~-------------7~--|
a--7~------------------------4~-----------2~---------12~-------------7~--|
d--7~------------------------4~-----------2~---------12~-------------7~--|

"Hey you....."
e-----------------------------------------------------------------------|
b-----------------------------------------------------------------------|
g--6-------6--------6---------6---------2-------2-------2-------2-------|
d------7-------7---------7---------7--------2-------2-------2-------2---|
a-----------------------------------------------------------------------|
d----7---7---7---7----7----7----7-----7---4---4---4---4---4---4---4---4-|

           "Are you tired..."
e----------------------------------------|
b-------------------3-------3------------|
g--1-------1------------2------2-----6~--|
d------2-------2------0---0--0---0---7~--|
a----------------------------------------|
d----2---2---2---2-------------------7~--|
Tap to rate this tab
 
# A B C D E F G H I J K L M N O P Q R S T U V W X Y Z