Song name
# A B C D E F G H I J K L M N O P Q R S T U V W X Y Z

Dir En Grey - Vinushka tab

Dir en grey – Vinushka (acoustic intro)

Die (I think) – Acoustic Guitar
From diru’s 2008 album, UROBOROS
Tabbed by Tanisuke


tune down 1/2 step w/Drop D tuning:
6= C#	3= F#
5= G#	2= A#
4= C#	1= D#

   0:01                         0:05
D#|--------------------|-------------|--------------------|-------------------------|
A#|--------------------|-------------|--------------------|-------------------------|
F#|--------------------|-------------|--------------------|----9------10------------|
C#|--------7-----5/8---|-------------|---------7----5/8---|--------8------8-----8---|
G#|-----0--------------|-------------|------0-------------|------------------0------|
C#|--0-----------------|-------------|---0----------------|-------------------------|

   0:09                               0:14
|--------------|-----------------|-------------------------------|-------------------------------|
|--------------|-----------------|-------------------------------|-------------------------------|
|--------------|-----------------|-------------------------------|-------------------------------|
|-------7------|-----------------|--------7-----7-----5/7--8-7---|----7--------8--7--7---------5-|
|----0---------|-----------------|-----0-----0-----0-------------|----------0-----------8--7-----|
|-0------------|-----------------|--0----------------------------|-------0-----------------------|

   0:18
|------------------------------|----------------------------------|
|------------------------------|----------------------------------|
|------------------------------|----------------------------10----|
|--------7-----7-----5/7--8-7--|--7--------8--7--7-----5/8--------|
|-----0-----0-----0------------|--------0-----------8-------------|
|--0---------------------------|-----0----------------------------|

   0:24
|------------------------------|-----------------------------|
|------------------------------|-----------------------------|
|------------------------------|-----------------------------|
|--------7-----7-----5/7--8-7--|--7--------8-7-7--------5----|
|-----0-----0-----0------------|--------0---------8--7-------|
|--0---------------------------|-----0-----------------------|

   0:28                                                       0:33
|------------------------------|----------------------------|-------||
|------------------------------|----------------------------|-------||
|------------------------------|----------------------------|-------||
|--------7-----7-----5/7--8-7--|--7--------8-7-7------------|-------||
|-----0-----0-----0------------|--------0---------8--7—-5\--|--5----||
|--0---------------------------|-----0----------------------|--7----||

NOTE (Excerpt for wikipedia Uroboros (album) article):
“In harmony with the Asian themes in the album, the first two tracks titles, "Sa Bir"
"Vinushka" are derived from the Tibetan language and Russian language respectively. The
referring to the movement of the Earth, while the latter is a "word from Russian origin" 
"to talk about elements that are linked to sins," according to Kaoru's interview for VerdamMnis.”


THIS IS MY FIRST TAB. PLEASE RATE!!!
If you have questions feel free to email me at tanisuke121@aol.com
Tap to rate this tab
 
# A B C D E F G H I J K L M N O P Q R S T U V W X Y Z