Song name
# A B C D E F G H I J K L M N O P Q R S T U V W X Y Z

Dir En Grey - Mushi tab

Help us improve GuitareTab! Take a short survey!
--------------------------------------------------------------------------------------
			         MUSHI - Dir En Grey
--------------------------------------------------------------------------------------
Tabbed by: Matheus
Email: darkdeathm@pop.com.br

Tuning: e/B/G/D/A/E

e|-----------------------------------------------------------------------------------|
B|-13-15-15--15b-------15b---15-15b---13---------------------------------------------|
G|------------------12---------------------------------------------------------------|
D|-----------------------------------------------------------------------------------|
A|-----------------------------------------------------------------------------------|
E|-----------------------------------------------------------------------------------|

e|--------------------------------------------------15-------------------------------|
B|-13-15-15--15b-----15b---15b---15-15b--13---------------13--13/15------------------|
G|-----------------------------------------------------15----------------------------|
D|-----------------------------------------------------------------------------------|
A|-----------------------------------------------------------------------------------|
E|-----------------------------------------------------------------------------------|

e|-----------------------------------------------------------------------------------|
B|-----------------------------------------------------------------------------------|
G|-----------------------------------------------------------------------------------|
D|----------12--12b------------------------------------------------------------------|
A|-11-10------------------11-10-10-8-8/10--------------------------------------------|
E|-----------------------------------------------------------------------------------|

e|-----------------------------------------------------------------------------------|
B|-----------------------------------------------------------------------------------|
G|-----------------------------------------------------------------------------------|
D|-------12-12b-----14b--14b---12h13p12-10-10----8-8-8-8/10-10-----------------------|
A|-10h11-----------------------------------------------------------------------------|
E|-----------------------------------------------------------------------------------|

e|--------------------------------------------------------------------15-------------|
B|-------------------13-------15----16---13---15h16p15----13----15-13----13-15-15-15b|
G|-10-10-10-10/12-12----12-12----12--------------------12----12----------------------|
D|-----------------------------------------------------------------------------------|
A|-----------------------------------------------------------------------------------|
E|-----------------------------------------------------------------------------------|

e|-----------------------------------------------------------------------------------|
B|-16p15-15\13-13\11-11/13-----------------------------------------------------------|
G|-----------------------------------------------------------------------------------|
D|-----------------------------------------------------------------------------------|
A|-----------------------------------------------------------------------------------|
E|-----------------------------------------------------------------------------------|



| /  slide up
| \  slide down
| h  hammer-on
| p  pull-off
| b  bend
======================================================================================
Related for Mushi tab