Song name
# A B C D E F G H I J K L M N O P Q R S T U V W X Y Z

Dire Straits - Romeo & Juliet tab

Here is the way I am playing the main intro.

The * indicates that the chords should be played quickly one finger after the other (thumb first).

The / shows that the you should slide to the next note.
Im quiet proud to play it on an old Martin guitar.
Hope that you will enjoy.

Main chords are D A Bm E.

Fig 1
             *                   *                                       *
-2-----2-----0--0-------------------0--2-----2---------2--------------------0----       
------3---3--2-2---3-----0-3-----1/3-------3--3-------3-523-----0--3-----1/3-----
-----2---2---22--------0-------0-0-------2-----------2--------0--------0-0-------
----0--------0-------0-------0---0-----0----------0/4-------0--------0---0-------   
-------------------------------------------------0------------------------------- 
-------------------3-------------3------------------------3--------------3-------
                  

Fig 2
             *                   *                                      *
-2-------2---0--0----------------2-0--2-----2---------2--------------------0----- 
-----3------32-2---3-----0-3-----3----3---3--3-------3-523-----0--3-----1/3------ 
---2---2---2-22--------0-------0-0----2-2-----------2--------0--------0-0-------- 
-0-----------0-------0-------0-------------------0/4-------0--------0---0-------- 
--------------------------------------0---------0-------------------------------- 
-------------------3-------------3-----------------------3--------------3--------


And know with voice over
Fig 3
                                *             
-2-------2---------------------------2--------3/2--------------------------------
-3---3--------2----3-------3----2/3------3-------3----------3-------------0------
-2-2---2---2--2----4---4--------2------2---2------2---2----4---4-------2/4-------
-0------------2----4-4---4---4--2----0--------0----2/4----4-----4----0-----------
--------------0----2------------0------------------0-----2-----------------------
-------------------------------------------------------------------3-------------


Fig 4
---------------------------------------------0---------------------------------- 
-2-------2--------2---2----3---2---0-----0-----2-----2-------0-2----------------
-2---2-----2----242--2-----4---2---2---2-------------2---2---2-2---- go back (Fig 3).
-2-2---2----2--0--2-2---2--4---2---0-0-----0-----0---2-2---2-0-2----------------
-0----------------0--------2---0---------------------0---------0----------------
--------------3--------------------3-------------------------3------------------


With this song, you can add variations and colours to the transitions between D, A and E
Tap to rate this tab
 
# A B C D E F G H I J K L M N O P Q R S T U V W X Y Z