Song name
# A B C D E F G H I J K L M N O P Q R S T U V W X Y Z

Dirty Projectors - Rise Above chords

Highlighted       Show chord diagrams
-------------------------------------------------------------
RISE ABOVE (CHORDS ONLY) - Dirty Projectors - from RISE ABOVE
-------------------------------------------------------------

Tabbed by: Kris Ellestad
Date: September 10th, 2009
Email: knilstad@gmail.com
Site: knilstad.blogspot.com

Standard tuning
Capo on 3rd fret


 Db   Eb7 Fm      
Jealous   cowards try to control

Eb6/7
They distort what we say

Db      Eb7 Fm
Try to stop what we do

 Eb6/7         Bbm                  Ab
When they can't   do it themselves

       Bbm2     Ab
We are tired of your abuse
 
       Bbm2         Ab Bbm2 Cm7      Bbm2
Try to stop us, but it's       no use

          Fm                       Cm
Society's arms think they're smart

     Bbm2     Cm   Bbm2            Cm      Bbm2
I find   satisfaction in what they're lacking 'cause

Db Cm7    Bbm7 Ab       Eb
We    are born   with a chance

Db   Cm7   Bbm7  Ab     Eb
And I'm   gonna   have my chance

Db   Cm7  Bbm7  Ab
Rise above 

Db  Cm7  Bbm7      Ab
Rise   above   Rise above

etc.

BREAKDOWN in the middle:

Ab  Ab  Ab  Ab

Ab6-4/7

Ab2

Ab  Ab  Ab  Ab

and the back to "We are tired of your abuse"


                      *                                                      *
   Db    Eb7   Fm   Eb6/7  Bbm   Ab    Bbm2  Cm7   Cm   Bbm7   Db    Eb   Ab6-4/7  Ab2
e|-(1)-|--5--|--5--|--5--|-(3)-|--1--|-----|--3--|--0--|--1--|-----|--0--|---1---|--1--|
B|--3--|--5--|--6--|--5--|--3--|--1--|--3--|--1--|--1--|--3--|--3--|--1--|---1---|--1--|
G|-(3)-|--5--|--7--|--5--|--3--|--2--|--3--|--2--|--2--|--3--|--3--|--0--|---2---|--2--|
D|-(3)-|-(5)-|--7--|--5--|--5--|--3--|--0--|--2--|--2--|--0--|--3--|--2--|---0---|--3--|
A|--1--|--3--|--5--|--7--|--5--|--3--|-----|--0--|--0--|-----|--1--|--3--|-------|-----|
E|-----|-----|-----|-----|--3--|--1--|--3--|-----|-----|--3--|-----|-----|-------|-----|

*The 6 indicates first inversion. 6-5 is a second inversion 7th chord.

Tap to rate this tab
# A B C D E F G H I J K L M N O P Q R S T U V W X Y Z