Song name
# A B C D E F G H I J K L M N O P Q R S T U V W X Y Z

Dirty Three - Distant Shore tab

-------------------------------------------------------------------------------
			     Distant Shore - Dirty three
-------------------------------------------------------------------------------
Tabbed by: Kaasflipje
Email: kaasflipje@gmail.com

Tuning :Standard

This is the main riff. I might add more later.  I think you can figure the rest out by yourself.
e|---------------------------------------------------------------------------|
B|-----------------------------3----1----------1-----------------------------|
G|0-----0------0-----------------------2------ 2-----------------------------|
D|---2-----0-------0---------------------------2-----------------------------|
A|3-------------------------0------------------------------------------------|
E|---------------------------------------------------------------------------|




************************************

| /   slide up
| \   slide down
| h   hammer-on
| p   pull-off
| ~   vibrato
| +   harmonic
| x   Mute note
| b   Bend
| pb  Pre-bend
| br  Bend release
| pbr Pre-bend release
| brb Bend release bend

************************************
Tap to rate this tab
 
# A B C D E F G H I J K L M N O P Q R S T U V W X Y Z