Song name
# A B C D E F G H I J K L M N O P Q R S T U V W X Y Z

Disarmonia Mundi - Ghost Song tab

I know I said whole song, but there's not a section for "outro".
I might get round to tabbing the whole thing eventually.

Ascension Loop
E----------------------------------|
B----------------------------------|
G----------------------------------|
D--7--7----7--7----3--3----5--5----|
A--7--7----7--7----3--3----5--5----|
E--5--5-5--5--5-5--1--1-1--3--3-3--|
        .       .       .       .


Final Loop
Harmony A
E--------------------------------------------------------|
B--------------------------------------------------------|
G--------------------------------------------------------|
D--4--7--2----------------------4--7--0------------------|
A--------------------------------------------------------|
E--------------------------------------------------------|

Harmony B
E--------------------------------------------------------|
B--------------------------------------------------------|
G--6--9--4----------------------6--9--4------------------|
D--------------------------------------------------------|
A--------------------------------------------------------|
E--------------------------------------------------------|

Rhythm
E--------------------------------------------------------|
B--------------------------------------------------------|
G--------------------------------------------------------|
D--6--9--4---4-------4-------4--6--9--2-------2-------2--|
A--6--9--4---4-------4-------4--6--9--2-------2-------2--|
E--4--7--2-2-2-2-2-2-2-2-2-2-2--4--7--0-0-0-0-0-0-0-0-0--|
           .   . . .   . . .            . . .   . . .

Outro
All electrics
E----------------------------|
B----------------------------|
G----------------------------|
D--6--9--4---4--6--9--2---2--|
A--6--9--4---4--6--9--2---2--|
E--4--7--2-2-2--4--7--0-0-0--|
           .            .
Tap to rate this tab
# A B C D E F G H I J K L M N O P Q R S T U V W X Y Z