Song name
# A B C D E F G H I J K L M N O P Q R S T U V W X Y Z

Disciple - Stronghold tab

Song" Stronghold
Artist: Disciple
Tabbed by Jeff Král

Tuning: Capo 1 C# Major

Intro/Verse
   Am        F         G               C
e------------------------------------------------------>
B--------0h1----------1--------0--------1-----0-------->
G------2------------2--------0---0---0----0-----0---0-->
D----2------------3--------0-------0--------2-----2---->
A--0------------3--------2----------------------------->
E-------------1---------------------------------------->
   F                G
e----------------------------------|
B----------1--------------0--------|
G--------2---2----------0---0------|
D------3-------3------0-------0----|
A----3-----------3--2-----------2--|
E--1-------------------------------|

This is mostly the whole song other than the chorus. This plays through each verse, but 
slightly different each time.

Enjoy, more to come!
Tap to rate this tab
# A B C D E F G H I J K L M N O P Q R S T U V W X Y Z