Song name
# A B C D E F G H I J K L M N O P Q R S T U V W X Y Z

Disciple - Collision tab

Song: Collision
Band: Disciple
Album: Horseshoes and Handgrenades (2010)
Tabbed by: JRedDisciple
Drop C (C,G,C,F,A,D)


(Guitar 1)
Intro/verse
D --------------------------------------|
A --------------------------------------|
F --------------------------------------|
C --------------------------------------|   8x
G ---6--6--1--1--1--1-------------------|
C -6--9--4--4--4--4--4------------------|
(The calm that comes before this rage...)


(Guitar 2)
Intro/verse (6th time of Guitar 1)
D -------------------------------------------------------------------|
A -------------------------------------------------------------------|
F -------------------------------------------------------------------|
C -------------------------------------------------------------------|
G -------------------------------------------------------------------|
C ---6-6-6-6-6-6-6-6-4-4-4-4-4-4-4-4-6-6-6-6-6-6-6-6-4-4-4-4-4-4-4-4-|
pm  ****************************************************************
(Strip this away, if thatís what it takes, Iím ready to break!!)

(Guitar 1)
Chorus
D --------------------------14-------------|
A -------------14-16-14-16-----14-12-11----|
F -9---------------------------------------|
C -9--6---1--2-----------------------------|
G -7--6---1--2-----------------------------|
C ----6---1--2-----------------------------|
(Lean forward, Iím bracing for collision...)

(Guitar 2)
Chorus
D ------------------------|
A ------------------------|
F ---------------4--8-----|
C --2--6--1--2---4--8-----|
G --2--6--1--2---2--6-----|
C --2--6--1--2------------|



(Guitar 1)
Intro/verse
D --------------------------------------|
A --------------------------------------|
F --------------------------------------|
C --------------------------------------|   8x
G ---6--6--1--1--1--1-------------------|
C -6--9--4--4--4--4--4------------------|


(Guitar 2)
Intro/verse (4th time of Guitar 1)
D -----------------------------------------------------------------|
A -----------------------------------------------------------------|
F -----------------------------------------------------------------|
C -----------------------------------------------------------------|
G -----------------------------------------------------------------|
C -6-6-6-6-6-6-6-6-4-4-4-4-4-4-4-4-6-6-6-6-6-6-6-6-4-4-4-4-4-4-4-4-|
pm ***************************************************************


(Guitar 1)
Chorus
D --------------------------14-------------|
A -------------14-16-14-16-----14-12-11----|
F -9---------------------------------------|
C -9--6---1--2-----------------------------|
G -7--6---1--2-----------------------------|
C ----6---1--2-----------------------------|

(Guitar 2)
Chorus
D ------------------------|
A ------------------------|
F ---------------4--8-----|
C --2--6--1--2---4--8-----|
G --2--6--1--2---2--6-----|
C --2--6--1--2------------|


(Guitars 1 and 2)
Bridge
D ----------3x------| ----------------------------------|
A ------------------| ----------------------------------|
F ------------------| ----------------------------------|
C -9-8-6-8-1-4-6----| ---9-8-6-8-1-4-1--1-1--1-1--------|
G -7-6-4-6-1-4-6----| ---7-6-4-6-1-4-1--1-1--1-1--------|
C ---------1-4-6----| -----------1-4-1--1-1--1-1--------|
(Iím not running away!)

(Guitar 1)
D --------------------------------------|
A --------------------------------------|
F --------------------------------------|
C --------------------------------------|   3x
G ---6--6--1--1--1--1-------------------|
C -6--9--4--4--4--4--4------------------|

Chorus 2x


(Guitar 1)
D -----------------------------------|
A -----------------------------------|
F -----------------------------------|
C -----------------------------------|
G ---6--6--1--1--1--1----------------|
C -6--9--4--4--4--4--4---------------|

Done!!
Please rate and comment!!
Tap to rate this tab
# A B C D E F G H I J K L M N O P Q R S T U V W X Y Z