Song name
# A B C D E F G H I J K L M N O P Q R S T U V W X Y Z

Disciple - Outlaws tab

Song: Outlaws
Artist: Disciple
Tuning: Drop C (CGCFAD)
I am 100% sure this tab is correct but if you have a change or suggestion please leave a comment

Intro:
D|------------------------------------------------|
A|------------------------------------------------|
F|------------------------------------------------|
C|------------------------------------------------|
G|------------------------------------------------|
C|5-5-3-5-8-5-3---5-5-3-5-8-5-0---5-5-3-5-8-5-3---|
  * * * * * * *   * * * * * * *   * * * * * * *
D|-----------------------------------------------------------------------|
A|-----------------------------------------------------------------------|
F|-----------------------------------------------------------------------|
C|--888---333---5-5-3-5-8-5-3---5-5-3-5-8-5-0---5-5-3-5-8-3---888--333---|
G|--888---333---5-5-3-5-8-5-3---5-5-3-5-8-5-0---5-5-3-5-8-3---888--333---|
C|--888---333---5-5-3-5-8-5-3---5-5-3-5-8-5-0---5-5-3-5-8-3---888--333---|

Verse 1:
D|--------------------------------------------------------------------------|
A|--------------------------------------------------------------------------|
F|--------------------------------------------------------------------------|
C|--5-0--00--55-0--888--333--5-0--5-0--00--6--3-0--00--000--5-0-------------|
G|--5-0--00--55-0--888--333--5-0--5-0--00--6--3-0--00--000--5-0-------------|
C|--5-0--00--55-0--888--333--5-0--5-0--00--6--3-0--00--000--5-0-------------|

D|--------------------------------------------------------------------------|
A|--------------------------------------------------------------------------|
F|--------------------------------------------------------------------------|
C|--00--55-0--888--333--5-0--5-0--00--6--3-0--00000000----------------------|
G|--00--55-0--888--333--5-0--5-0--00--6--3-0--00000000----------------------|
C|--00--55-0--888--333--5-0--5-0--00--6--3-0--00000000----------------------|

Pre-Chorus:
D|--------------------------------------------------------|
A---------------------------------------------------------|
F|--------------------------------------------------------|
C|---------------------------------------------888--333---|
G|---------------------------------------------888--333---|
C|--5-5-3-5-8-5-3-5-5-3-5-8-5-0-5-5-3-5-8-5-3--888--333---|
    * * * * * * * * * * * * * * * * * * * * *  ***  ***
D|--------------------------------------------------------------------------|
A|--------------------------------------------------------------------------|
F|--------------------------------------------------------------------------|
C|--------------------------------------------------------------------00000-|
G|--------------------------------------------------------------------00000-|
C|--5-5-3-5-8-5-3--5-5-3-5-8-5-0--5-5-3-5-8-5-3-----------------------00000-|
    * * * * * * *  * * * * * * *  * * * * * * *

Chorus:
D|--------------------------------------------------------------------------|
A|--------------------------------------------------------------------------|
F|--------------------------------------------------------------------------|
C|--55-3-5-8-5-3--55-3-5-8-5-0--55-3-5-8-5-3--888--333----------5-0---------|
G|--55-3-5-8-5-3--55-3-5-8-5-0--55-3-5-8-5-3--888--333--(2x)----5-0---------|
C|--55-3-5-8-5-3--55-3-5-8-5-0--55-3-5-8-5-3--888--333----------5-0---------|

Verse 2:
D|--------------------------------------------------------------------------|
A|--------------------------------------------------------------------------|
F|--------------------------------------------------------------------------|
C|--5-0--00--55-0--888--333--5-0--5-0--00--6--3-0--00--000--5-0-------------|
G|--5-0--00--55-0--888--333--5-0--5-0--00--6--3-0--00--000--5-0-------------|
C|--5-0--00--55-0--888--333--5-0--5-0--00--6--3-0--00--000--5-0-------------|

D|--------------------------------------------------------------------------|
A|--------------------------------------------------------------------------|
F|--------------------------------------------------------------------------|
C|--00--55-0--888--333--5-0--5-0--00--6--3-0--00000000----------------------|
G|--00--55-0--888--333--5-0--5-0--00--6--3-0--00000000----------------------|
C|--00--55-0--888--333--5-0--5-0--00--6--3-0--00000000----------------------|

Pre-Chorus:
D|--------------------------------------------------------------------------|
A|--------------------------------------------------------------------------|
F|--------------------------------------------------------------------------|
C|--------------------------------------------------------------------00000-|
G|--------------------------------------------------------------------00000-|
C|--5-5-3-5-8-5-3---5-5-3-5-8-5-0---5-5-3-5-8-5-3---------------------00000-|
    * * * * * * *   * * * * * * *   * * * * * * *

Chorus:
D|--------------------------------------------------------------------|
A|--------------------------------------------------------------------|
F|--------------------------------------------------------------------|
C|--55-3-5-8-5-3---55-3-5-8-5-0---55-3-5-8-5-3---888--333-------------|  (2x)
G|--55-3-5-8-5-3---55-3-5-8-5-0---55-3-5-8-5-3---888--333-------------|
C|--55-3-5-8-5-3---55-3-5-8-5-0---55-3-5-8-5-3---888--333-------------|


Bridge:
D|---------------------------------------------------------------------|
A|---------------------------------------------------------------------|
F|---------------------------------------------------------------------|
C|--5-3-5-8-5-3-5-3--5-8-5-3-0-3-0-5-----------------------------------| (4x)
G|--5-3-5-8-5-3-5-3--5-8-5-3-0-3-0-5-----------------------------------|
C|--5-3-5-8-5-3-5-3--5-8-5-3-0-3-0-5-----------------------------------|

D|--------------------------------------------------------------------------|
A|--------------------------------------------------------------------------|
F|--------------------------------------------------------------------------|
C|--7------4------0------7-------0-------7-------0-------7------2-----------|
G|--7(8x)--4(8x)--0(8x)--7(8x)---0(16x)--7(16x)--0(16x)--7(8x)--2(8x)-------|
C|--7------4------0------7-------0-------7-------0-------7------2-----------|

Pre-Chorus:
D|--------------------------------------------------------------------------|
A|--------------------------------------------------------------------------|
F|--------------------------------------------------------------------------|
C|--5-0-------00000---------------------------------------------------------|
G|--5-0(3x)---00000---------------------------------------------------------|
C|--5-0-------00000---------------------------------------------------------|

Chorus:
D|--------------------------------------------------------------------------|
A|--------------------------------------------------------------------------|
F|--------------------------------------------------------------------------|
C|--55-3-5-8-5-3---55-3-5-8-5-0---55-3-5-8-5-3---888--333-------------------|
G|--55-3-5-8-5-3---55-3-5-8-5-0---55-3-5-8-5-3---888--333--(4x)-------------|
C|--55-3-5-8-5-3---55-3-5-8-5-0---55-3-5-8-5-3---888--333-------------------|

(At the end of the fourth time through the chorus play this instead of 8--3)
D|--------------------------------------------------------------------------|
A|--------------------------------------------------------------------------|
F|--------------------------------------------------------------------------|
C|--00000-------------------------------------------------------------------|
G|--00000-------------------------------------------------------------------|
C|--00000-------------------------------------------------------------------|

Outro:
D|--------------------------------------------------------------------------|
A|--------------------------------------------------------------------------|
F|--------------------------------------------------------------------------|
C|--5-3-5-8-5-3-5-3-5-8-5-3-0-3-0-5-------5-0-------------------------------|
G|--5-3-5-8-5-3-5-3-5-8-5-3-0-3-0-5(4x)---5-0-------------------------------|
C|--5-3-5-8-5-3-5-3-5-8-5-3-0-3-0-5-------5-0-------------------------------|

Finished!
Tap to rate this tab
# A B C D E F G H I J K L M N O P Q R S T U V W X Y Z