Song name
# A B C D E F G H I J K L M N O P Q R S T U V W X Y Z

Disciple - Beautiful Scars tab

Disciple - Beautiful Scars

Tuning Standard




Intro:
e|-----------------|-----------6-6-6-|
B|-3-3-3-4-4-------|-3-3-3-4-4-------|
G|-----------3-3-3-|-----------------|
D|-----------------|-----------------|
A|-----------------|-----------------|
E|-----------------|-----------------|

Chords:
|Eb5|Bb5|Ab5|Ab5|
                 2x




Verse:
e|--------------------|--------------------|
B|--------------------|--------------------|
G|-5-5-5--------------|-5-5-5--------------|
D|-5-5-5--------------|-5-5-5--------------|
A|-3-5-5--3-5-7-7-5-5-|-3-5-5--3-5-7-7-5-5-|
E|-3-3-3--------------|-3-3-3--------------|

then |Ab5|Ab5|Eb5|F5|






Pre-Chorus:

Eb5  |D/Bb5|Ab5|-|
|----|----|----|
|----|----|----|
|-8--|--7-|--5-|
|----|----|----|
|-6--|--5-|--3-|
|----|----|----|





Chorus:
|Eb5|Bb5|Ab5|Ab5|
|Eb5|Bb5|Ab5|Ab5|
|Eb5|Bb5|Ab5|Ab5|
|F5|G/Eb5|Ab5|Ab5|
|C5|Bb5|

Solo:
e|-----------------|-----------6-6-6-|
B|-----------------|-----------------|
G|-7-8-7-8---------|-7-8-7-8---------|
D|----------8-8-8--|-----------------|
A|-----------------|-----------------|
E|-----------------|-----------------|

Tap to rate this tab
# A B C D E F G H I J K L M N O P Q R S T U V W X Y Z