Song name
# A B C D E F G H I J K L M N O P Q R S T U V W X Y Z

Disciple - Dive tab

Help us improve GuitareTab! Take a short survey!
SONG: DIVE
ARTIST: DISCIPLE
ALBUM: SCARS REMAIN

TUNING: DROP C (C G C F A D)

... = PALM MUTE

INTRO/BRIDGE(SOLO)
D[--55-44---------------------]
A[--------77-55--77-55----55--]
F[---------------------77-----]
C[----------------------------]
G[----------------------------]
C[----------------------------]
    .. .. .. ..  .. .. .. ..

VERSE PT.1/CHORUS
D[-----------------]
A[-----------------]
F[-----------------]
C[--2h4-4-2h4-4-0--]
G[--2h4-4-2h4-4-0--]
C[--2h4-4-2h4-4-0--]

VERSE PT. 2
[16TH TRIPLETS]
D[--4--5--]
A[--5--5--]
F[--------]
C[--------]
G[--------]
C[--------]

PRE-CHORUS
D[-----------------------------------------------]
A[-----------------------------------------------]
F[--6-66--------------------6-66-----------------]
C[--6-66--7-77--2-22-2-22---6-66--7-77--4-44--0--]
G[--4-44--7-77--2-22-2-22---4-44--7-77--4-44--0--]
C[--------7-77--2-22-2-22---------7-77--4-44--0--]

CHORUS

VERSE PT.2

VERSE PT.1  -
	     | REPEAT
VERSE PT.2  -

PRE-CHORUS

DBL CHORUS

BRIDGE

PRE-CHORUS

DBL CHORUS
Related for Dive tab