Song name
# A B C D E F G H I J K L M N O P Q R S T U V W X Y Z

Disciple - Dive tab

-----------------------------------------------------------------------------
			     Dive - Disciple
-----------------------------------------------------------------------------
Tabbed by:Flatline222
Tuning: Drop C (CGCAD)
 /  slide up
 \  slide down
 h  hammer-on
 p  pull-off
 ~  vibrato
 +  harmonic
 x  Mute note
 b  Bend note
 .  Palm mute


	Intro
d|---555-444----------------|
A|-----------777-555----5b--|
F|-------------------66-----|
C|--------------------------|
G|--------------------------|
C|--------------------------|
     ... ... ... ... .. +

	Main Riff
D|--------------------------|
A|--------------------------|
F|--------------------------|
C|---2h4-4p2h4-4-0----------|
G|---2h4-4p2h4-4-0----------|
C|---2h4-4p2h4-4-00-00------|



D|--------------------------|
A|--------------------------|
F|--------------------------|x2
C|---2h4-4p2h4-4-0----------|
G|---2h4-4p2h4-4-0----------|
C|---2h4-4p2h4-4-0----------|

D|--------------------------|
A|--------------------------|
F|--------------------------|final time
C|---2h4-4p2h4xxxx-xxxx-----|
G|---2h4-4p2h4xxxx-xxxx-----|
C|---2h4-4p2h4xxxx-xxxx-----|

	Verse
D|---4-4-4-4-5-5-5-5--------|
A|---x-x-x-xx-x-x-x--------|
F|---1-1-1-1-2-2-2-2--------|
C|--------------------------|
G|--------------------------|
C|--------------------------|

D|--------------------------|
A|--------------------------|
F|--------------------------|x2
C|---2h4-4p2h4-4-0----------|
G|---2h4-4p2h4-4-0----------|
C|---2h4-4p2h4-4-0----------|

D|---4-4-4-4-5-5-5-5--------|
A|---x-x-x-xx-x-x-x--------|
F|---1-1-1-1-2-2-2-2--------|
C|--------------------------|
G|--------------------------|
C|--------------------------|

	Pre-Chorus
D|---------------------------------|
A|---------------------------------|
F|---6-xx-6------------------------|
C|---6-xx-6-7-xx-7-2-xx-2--2-xx-2--|
G|---4-xx-4-7-xx-7-2-xx-2--2-xx-2--|
C|----------7-xx-7-2-xx-2--2-xx-2--|

D|------------------------------------|
A|------------------------------------|
F|---6-xx-6---------------------------|
C|---6-xx-6-7-xx-7-44-4-44-4-0-0-0-0--|
G|---4-xx-4-7-xx-7-44-4-44-4-0-0-0-0--|
C|----------7-xx-7-44-4-44-4-0-0-0-0--|

	First Chorus

D|--------------------------|
A|--------------------------|
F|--------------------------|x4
C|---2h4-4p2h4-4-0----------|
G|---2h4-4p2h4-4-0----------|
C|---2h4-4p2h4-4-0----------|

D|----------------|
A|----------------|
F|----------------|x2
C|-0-0-0-0-2h4p2--|
G|-0-0-0-0-2h4p2--|
C|-0-0-0-0-2h4p2--|

	Verse

D|---4-4-4-4-5-5-5-5--------|
A|---x-x-x-xx-x-x-x--------|
F|---1-1-1-1-2-2-2-2--------|
C|--------------------------|
G|--------------------------|
C|--------------------------|

D|--------------------------|
A|--------------------------|
F|--------------------------|x2
C|---2h4-4p2h4-4-0----------|
G|---2h4-4p2h4-4-0----------|
C|---2h4-4p2h4-4-0----------|

D|---4-4-4-4-5-5-5-5--------|
A|---x-x-x-xx-x-x-x--------|
F|---1-1-1-1-2-2-2-2--------|
C|--------------------------|
G|--------------------------|
C|--------------------------|

	Pre-Chorus
D|---------------------------------|
A|---------------------------------|
F|---6-xx-6------------------------|
C|---6-xx-6-7-xx-7-2-xx-2--2-xx-2--|
G|---4-xx-4-7-xx-7-2-xx-2--2-xx-2--|
C|----------7-xx-7-2-xx-2--2-xx-2--|

D|------------------------------------|
A|------------------------------------|
F|---6-xx-6---------------------------|
C|---6-xx-6-7-xx-7-44-4-44-4-0-0-0-0--|
G|---4-xx-4-7-xx-7-44-4-44-4-0-0-0-0--|
C|----------7-xx-7-44-4-44-4-0-0-0-0--|

	Chorus
D|--------------------------|
A|--------------------------|
F|--------------------------|x4
C|---2h4-4p2h4-4-0----------|
G|---2h4-4p2h4-4-0----------|
C|---2h4-4p2h4-4-0----------|

D|----------------|
A|----------------|
F|----------------|
C|-0-0-0-0-2h4p2--|
G|-0-0-0-0-2h4p2--|
C|-0-0-0-0-2h4p2--|

D|--------------------------|
A|--------------------------|
F|--------------------------|x4
C|---2h4-4p2h4-4-0----------|
G|---2h4-4p2h4-4-0----------|
C|---2h4-4p2h4-4-0----------|

D|----------------|
A|----------------|
F|----------------|
C|-0-0-0-0-2h4p2--|x2
G|-0-0-0-0-2h4p2--|
C|-0-0-0-0-2h4p2--|

	Bridge

d|---555-444----------------|
A|-----------777-555----5b--|
F|-------------------66-----|x3
C|--------------------------|
G|--------------------------|
C|--------------------------|

d|---555-444----------------|
A|-----------777-555----5b--|
F|-------------------66-----|
C|--------------------------|4th time
G|--------------------------|
C|--------------------------|
                        +

d|---555-444----------------|
A|-----------777-555----5b--|
F|-------------------66-----|x5
C|--------------------------|
G|--------------------------|
C|--------------------------|

	Pre-Chorus

D|---------------------------------|
A|---------------------------------|
F|---6-xx-6------------------------|
C|---6-xx-6-7-xx-7-2-xx-2--2-xx-2--|
G|---4-xx-4-7-xx-7-2-xx-2--2-xx-2--|
C|----------7-xx-7-2-xx-2--2-xx-2--|

D|------------------------------------|
A|------------------------------------|
F|---6-xx-6---------------------------|
C|---6-xx-6-7-xx-7-44-4-44-4-0-0-0-0--|
G|---4-xx-4-7-xx-7-44-4-44-4-0-0-0-0--|
C|----------7-xx-7-44-4-44-4-0-0-0-0--|
	
	Chorus
D|--------------------------|
A|--------------------------|
F|--------------------------|x4
C|---2h4-4p2h4-4-0----------|
G|---2h4-4p2h4-4-0----------|
C|---2h4-4p2h4-4-0----------|

D|----------------|
A|----------------|
F|----------------|
C|-0-0-0-0-2h4p2--|
G|-0-0-0-0-2h4p2--|
C|-0-0-0-0-2h4p2--|

D|--------------------------|
A|--------------------------|
F|--------------------------|x4
C|---2h4-4p2h4-4-0----------|
G|---2h4-4p2h4-4-0----------|
C|---2h4-4p2h4-4-0----------|

D|----------------|
A|----------------|
F|----------------|
C|-0-0-0-0-2h4p2--|x2
G|-0-0-0-0-2h4p2--|
C|-0-0-0-0-2h4p2--|
	
	Outro
D|-----------------|
A|-----------------|
F|-----------------|
C|-0-0-0-0-2h4p2-0-|
G|-0-0-0-0-2h4p2-0-|
C|-0-0-0-0-2h4p2-0-|







Tap to rate this tab
 
# A B C D E F G H I J K L M N O P Q R S T U V W X Y Z