Song name
# A B C D E F G H I J K L M N O P Q R S T U V W X Y Z

Discipline - Boys Will Be Boys tab

                  DISCIPLINE - Boys Will Be Boys
               ------------------------------------
                          by Hannoi69
                         -------------


Intro/Verse

e|---------------------|
B|---------------------|
G|-4---------4---------|
D|-4--6--4---4--6--2-4-|
A|-2--6--4---2--6--2-4-|
E|----4--2------4--0-2-|


Solo 1

e|-----------------------------------------------|(2x)
B|-7-5---7-5---7-5-7-8-7-5-7-5---7-5------7-5----|
G|-----7-----7-----------------7-----7-4~--------|
D|-----------------------------------------------|
A|-----------------------------------------------|
E|-----------------------------------------------|


Chorus

e|-------------------------------|
B|----5---------------5-----5--7-|
G|-4--4--4---------4--4--4--4--6-|
D|-4--2--4--6--4---4--2--4--2--4-|
A|-2-----2--6--4---2-----2-------|
E|----------4--2-----------------|


Bridge

e|---|
B|---|
G|-4-|
D|-4-|
A|-2-|
E|---|


Solo 2

e|----------------------------------|(2x)
B|-7-5-----7-5-----7-5-------8-7-5~-|
G|-----7~------7~------7~--4--------|
D|----------------------------------|
A|----------------------------------|
E|----------------------------------|


 Song Order
------------
Intro
Solo
Verse
Chorus
Solo
Verse
Chorus
Bridge
Solo 2
Solo 1
Verse
Chorus
Tap to rate this tab
 
# A B C D E F G H I J K L M N O P Q R S T U V W X Y Z