Song name
# A B C D E F G H I J K L M N O P Q R S T U V W X Y Z

Dismount - Falling Down tab

h = harmonic
Standard tuning
* = no music during voice effect
"Falling Down" by Andrew Conroy


First 5 Verses
|---------------------12h--------|
|---------------12h--------------|
|---------12h--------------------|
|--12h---------------------------|
|--------------------------------|
|--------------------------------|

After voice effect*
|---------------------------------|
|---------------------------------|
|---------------------------------|
|---------------------------------|
|-22224455------------------------|
|-00002233------------------------|

When Dismount plays this live, the use a Wah-Wah for the harmonics.

Peace out!
Tap to rate this tab
# A B C D E F G H I J K L M N O P Q R S T U V W X Y Z