Song name
# A B C D E F G H I J K L M N O P Q R S T U V W X Y Z

Dispatch - I Dont Wanna Fight tab

Woodriver Bandits
Little Hannah
I Don't Wanna Fight - Dispatch cover
Tabbed by Owen Sakovics
www.tabsinonefellswoop.com

 G	Bm	C		Am
-3------2-------0-------0-------0--|
-3------3-------1-------1-------1--|
-0------4-------0-------0-------2--|	x2
-0------4-------2-------0-------2--|
-2------2-------3-------2-------0--|
-3---------------------------------|

 G	Bm	C		Am	Am	Am
-3------2-------0-------0-------0-------0-------0--|
-3------3-------1-------1-------1-------1-------1--|
-0------4-------0-------0-------2-------2-------2--|	x1
-0------4-------2-------0-------2-------2-------2--|
-2------2-------3-------2-------0-------0-------0--|
-3-------------------------------------------------|

 D	Dsus4	G	G
-2-----h3-------3-------3--|
-3------3-------3-------3--|
-2------2-------0-------0--|	x2
-0------0-------0-------0--|
----------------2-------2--|
----------------3-------3--|

 C		Am	C		Am
-0------0-------0-------0-------0-------0--|
-1------1-------1-------1-------1-------1--|
-0------0-------2-------0-------0-------2--|	x1
-2------0-------2-------2-------0-------2--|
-3------2-------0-------3-------2-------0--|
-------------------------------------------|

 G	Bm	C		Am
-3------2-------0-------0-------0--|
-3------3-------1-------1-------1--|
-0------4-------0-------0-------2--|	x2
-0------4-------2-------0-------2--|
-2------2-------3-------2-------0--|
-3---------------------------------|

 G	Bm	C		Am	Am	Am
-3------2-------0-------0-------0-------0-------0--|
-3------3-------1-------1-------1-------1-------1--|
-0------4-------0-------0-------2-------2-------2--|	x1
-0------4-------2-------0-------2-------2-------2--|
-2------2-------3-------2-------0-------0-------0--|
-3-------------------------------------------------|

 D	Dsus4	G	G
-2-----h3-------3-------3--|
-3------3-------3-------3--|
-2------2-------0-------0--|	x2
-0------0-------0-------0--|
----------------2-------2--|
----------------3-------3--|

 C		Am	C		Am
-0------0-------0-------0-------0-------0--|
-1------1-------1-------1-------1-------1--|
-0------0-------2-------0-------0-------2--|	x1
-2------0-------2-------2-------0-------2--|
-3------2-------0-------3-------2-------0--|
-------------------------------------------|

 G	Bm	C		Am
-3------2-------0-------0-------0--|
-3------3-------1-------1-------1--|
-0------4-------0-------0-------2--|	x2
-0------4-------2-------0-------2--|
-2------2-------3-------2-------0--|
-3---------------------------------|

 G	Bm	C		Am	Am	Am
-3------2-------0-------0-------0-------0-------0--|
-3------3-------1-------1-------1-------1-------1--|
-0------4-------0-------0-------2-------2-------2--|	x1
-0------4-------2-------0-------2-------2-------2--|
-2------2-------3-------2-------0-------0-------0--|
-3-------------------------------------------------|

 D	Dsus4	G	G
-2-----h3-------3-------3--|
-3------3-------3-------3--|
-2------2-------0-------0--|	x4
-0------0-------0-------0--|
----------------2-------2--|
----------------3-------3--|

 C		Am	C		Am
-0------0-------0-------0-------0-------0--|
-1------1-------1-------1-------1-------1--|
-0------0-------2-------0-------0-------2--|	x1
-2------0-------2-------2-------0-------2--|
-3------2-------0-------3-------2-------0--|
-------------------------------------------|

 G	Bm	C		Am	G	Bm	C		Am
-3------2-------0-------0-------0-------3-------2-------0-------0-------0---|
-3------3-------1-------1-------1-------3-------3-------1-------1-------1---|
-0------4-------0-------0-------2-------0-------4-------0-------0-------2---|
-0------4-------2-------0-------2-------0-------4-------2-------0-------2---|
-2------2-------3-------2-------0-------2-------2-------3-------2-------0---|
-3--------------------------------------3-----------------------------------|
Tap to rate this tab
# A B C D E F G H I J K L M N O P Q R S T U V W X Y Z