Song name
# A B C D E F G H I J K L M N O P Q R S T U V W X Y Z

Dispatch - Messin Around tab

-----------------------------------------------------------------------------
                             Messin Around - Dispatch 
-----------------------------------------------------------------------------
Tabbed by: hey sturgio
E-mail:sturge.michael@yahoo.com

Tuning: standard

Verse:
e|--------------------------------------------------------------------------|
B|--------------------------------------------------------------------------|
G|-7--9--10--12--9--7--6--6------------------------6------------------------|
D|-x--x--x---x---x--x--x-(7)-----------------------x------------------------|
A|-5--7--8---10--7--5--4--x------------------------4------------------------|
E|------------------------5-------------------------------------------------|
                                                   Repeat.  second time end on: 
Interlude:
e|--------------------------------------------------------------------------|
B|--------------------------------------------------------------------------|
G|--------------------------------------------------------------------------|
D|------3h5p3----------5\6-5-3-3-3------------------------------------------|
A|--5-5-------5-5--3-3------------------------------------------------------|
E|--------------------------------------------------------------------------|

Bridge:
e|--------------------------------------------------------------------------|
B|--------------------------------------------------------------------------|
G|--7--6--------------------------------------------------------------------|
D|--7--7--------------------------------------------------------------------|
A|--5--7--------------------------------------------------------------------|
E|-----5--------------------------------------------------------------------|
Tap to rate this tab
# A B C D E F G H I J K L M N O P Q R S T U V W X Y Z