Song name
# A B C D E F G H I J K L M N O P Q R S T U V W X Y Z

Dispatch - Whirlwind tab

-------------------------------------------------------------
		   WHIRLWIND - Dispatch
-------------------------------------------------------------
From the album "Bang Bang"
Written by Brad Corrigan

Tab: devin miller

Email: irish__nugget@hotmail.com

Tuning: EADGBe

-------------INTRO-------------

strum this over and over:

e|------|
B|------|
G|--7+--|
D|--7+--|
A|--0---|
E|------|

then the other guitar comes in with these chords:

    A7  D/A   A
e|---------------|
B|--5----3----2--|
G|--x----x----x--|
D|--5----4----2--|
A|--0----0----0--|
E|---------------|

this is the order they are played in, but often he
will jump down to the A after the A7 then back up
to the D/A.  Just listen, the rhythm's easy to get.


-------------VERSE-------------

CHORDS USED:

    A7  D/A    A    B7  E9  F9
e|------------------7---7---8----|
B|--5----3-----2----7---7---8----|
G|--x----x-----x----8---7---8----|
D|--5----4-----2----7---9---10---|
A|--0----0-----0----9---7---8----|
E|------------------7------------|

There are 2 guitars playing the same thing here.


  A7               D/A               A
A whirlwind came into my life and it tried to rescue me.

A7                 D/A                    A
   Will you come?  Will you go?  Will you tell me seriously.

A7                 D/A                  A
Twisting, burning, my thoughts turning, back to you again,

A7       D/A         A
   Sweet thing,     take me to the end.

B7                      E9            F9 E9  A7    D/A    A
You better dig and take a look inside your   self.


So the story goes, and so I've heard it said
That you left your land to trade for a place so far away,
so out of date, that only you could understand.
And at the ceiling of my feeling, backed up against the wall,
Sweet thing, you know I'd fall in line.
You better dig and take a look inside yourself.


-------------CHORUS-------------

CHORDS USED (guitar 1):

    A7    D/A     A
e|---------------------|
B|--17-----15-----14---|
G|--x------x------x----|
D|--17-----16-----14---|
A|--0------0------0----|
E|---------------------|

CHORDS USED (guitar 2):

   A7   D/A   A
e|----------------|
B|--5----3----2---|
G|--x----x----x---|
D|--5----4----2---|
A|--0----0----0---|
E|----------------|


A7      D/A               A
She           wants to be free.

    A7     D/A       A
And I          wanna know.


A7      D/A               A
She           wants to be free.

    A7     D/A
And I          wanna know.


A soon as guitar 1 strikes the D/A, guitar 2 start playing this
(probably easier finger picking):


e|-------5-----------5--------------------3-----------3--------------|
B|-----3-----3-----3-----3--------------1-----1-----1-----1----------|
G|---0-----------0-----------0----0---0-----------0------------0---0-|
D|-4-----------4-----------4---\2---2-----------2------------2---2---|
A|-------------------------------------------------------------------|
E|-------------------------------------------------------------------|

-------3-----------3--------------------5-----------5-------------|
-----1-----1-----1-----1--------------3-----3-----3-----3---------|
---0-----------0-----------0----0---0-----------0-----------0---0-|
-2-----------2-----------2---/4---4-----------4-----------4---4---|
------------------------------------------------------------------|
------------------------------------------------------------------|

-------5-----------5-------------|
-----3-----3-----3-----3---------|
---0-----------0-----------0---0-|
-4-----------4-----------4---4---|
---------------------------------|
---------------------------------|


-------------BRIDGE-------------


one guitar plays the intro riff (with these chords):

    A7  D/A   A
e|---------------|
B|--5----3----2--|
G|--x----x----x--|
D|--5----4----2--|
A|--0----0----0--|
E|---------------|

one guitar plays this in the background:

e|--------------------------------------------------|
B|--------------------------------------------------|
G|--------------------------------------------------|
D|--------------------------------------------------|
A|--2p0-0-0-2p0-0-3--4--0-4p0-0-0-5p0-0-0-5p0-0-7---|
E|--------------------------------------------------|

(variation)
e|------------------------------------------------------|
B|------------------------------------------------------|
G|------------------------------------------------------|
D|--------------------------------------------------7-7-|
A|--2p0-0-0-2p0-0-3--4--0-4p0-0-0-5p0-0-0-5p0-0-7-------|
E|------------------------------------------------------|

-------------INTERLUDE-------------

this riff is tough to figure out
(guitars 1 and 2 together)

e|--0------0----0----0-0---0--0--0---0-0-----|
B|--14\12--12---19---x-19--15-x--15--x-15----|
G|--0------0----0----x-0---0--x--0---x-0-----|
D|--14\12--12---19---x-19--17-x--17--x-17----|
A|-------------------------------------------|
E|-------------------------------------------|

guitar 1 plays that 3 times, and guitar 2 plays it
4 times, now the next part is even tougher to
decipher:


guitar 1:

e|--0------0----0---0-0-----0---0-0-----0---0-0---0--3/5---|
B|--14\12--12---12--x-10\8--8---x-7\5---5---x-3---1--------|
G|--0------0----0---x-0-----0---x-0-----0---x-0---0--------|
D|--14\12--12---12--x-11\9--9---x-7\5---5---x-4---2--------|
A|---------------------------------------------------------|
E|---------------------------------------------------------|

guitar 2 (in time with guitar 1):


                            e|--0------0----0-0---0------------|
                            B|--14\12--12---x-10--8--------8---|
                            G|--0------0----x-0---0------------|
                            D|--14\12--12---x-11--9--7/9-------|
                            A|---------------------------------|
                            E|---------------------------------|

That part would definitely be best explained on guitar pro,
or in person.

-------------VERSE (SEE PREVIOUS VERSE)-------------


-------------INTERLUDE-------------

This is the last new part to learn.

I will not show the strumming, just the chords.  It's pretty straight
forward:

    E   Am   C#m6  E7   A7  F#m6  Dm   A
e|----------------------------------------|
B|----------------------5----4----3----2--|
G|--1----2----3----4----x----x----x----x--|
D|--x----x----x----x----5----4----3----2--|
A|--2----3----4----5----0----0----0----0--|
E|--0----0----0----0----------------------|

on the first 4 chords, listen to the song to hear when they tremolo pick
(quick strokes up and down) them.


-------------RETURN TO CHORUS-------------


-----------

Finish off with the old riff from the intro.

Amazing song


| /  slide up
| \  slide down
| p  pull-off
| +  harmonic
| x  dead note

==========================================================================
Tap to rate this tab
 
# A B C D E F G H I J K L M N O P Q R S T U V W X Y Z