Song name
# A B C D E F G H I J K L M N O P Q R S T U V W X Y Z

Dispatch - Granite tab

Dispatch/One Fell Swoop
Who Are We Living For
Granite
Tabbed by Owen Sakovics
www.tabsinonefellswoop.com

----------------------------------|
----------------------------------|
---7-5-----5-------------------5--|	x4
-------5-7---5-7-5---------7-5----|
-5-----------------8-5-8-5--------|
----------------------------------|

 Dm	Dm	Dm	Dm
-5------5-------5-------5--|
-6------6-------6-------6--|
-7------7-------7-------7--|	x2
-7------7-------7-------7--|
-5------5-------5-------5--|
---------------------------|

----------------------------------|
----------------------------------|
---7-5-----5-------------------5--|	x4
-------5-7---5-7-5---------7-5----|
-5-----------------8-5-8-5--------|
----------------------------------|

 Dm	Dm	Dm	Dm	F	F	G	G
-5------5-------5-------5-------8-------8-------10------10--|
-6------6-------6-------6-------10------10------12------12--|
-7------7-------7-------7-------10------10------12------12--|	x1
-7------7-------7-------7-------10------10------12------12--|
-5------5-------5-------5-------8-------8-------10------10--|
------------------------------------------------------------|

(OUTRO)
----------------------------------|
----------------------------------|
---7-5-----5-------------------5--|	x4
-------5-7---5-7-5---------7-5----|
-5-----------------8-5-8-5--------|
----------------------------------|

**FEEDBACK**
Tap to rate this tab
# A B C D E F G H I J K L M N O P Q R S T U V W X Y Z