Song name
# A B C D E F G H I J K L M N O P Q R S T U V W X Y Z

Dispatch - Ride A Tear tab

Help us improve GuitareTab! Take a short survey!
Hey, this is one of my favorite songs by dispatch and i cant believe no one has posted 
tabs of this song...here it goes


INTRO AND VERSES-

Just mess around with deadining the notes, the way i wrote it hear sounds similar but it 
be a little different. it supposed to sound reggaeish.

e|--xx-5-x-5---xx-4-x-4---xx-5-x-5----xx-5-x-5-------------|
B|--xx-5-x-5---xx-5-x-5---xx-5-x-5----xx-5-x-5-------------|
G|--xx-6-x-6---xx-4-x-4---xx-6-x-6----xx-6-x-6-------------|
D|---------------------------------------------------------|
A|---------------------------------------------------------|
E|---------------------------------------------------------|


PRE-CHORUS


e|--xx-2-x-2---xx-2-x-2---xx-4-x-4----xx-4-x-4-------------|
B|--xx-2-x-2---xx-2-x-2---xx-5-x-5----xx-5-x-5-------------|
G|------------------------xx-4-x-4----xx-4-x-4-------------|
D|---------------------------------------------------------|
A|---------------------------------------------------------|
E|---------------------------------------------------------|

Chorus

e|--xx-5-x-5---xx-4-x-4---xx-2-x-2----xx-2-x-2-------------|
B|--xx-5-x-5---xx-5-x-5---xx-2-x-2----xx-2-x-2-------------|
G|--xx-6-x-6---xx-4-x-4------------------------------------|
D|---------------------------------------------------------|
A|---------------------------------------------------------|
E|---------------------------------------------------------|

OUTRO

e|--xx-5-x-5---xx-4-x-4---xx-5-x-5----xx-5-x-5-------------|
B|--xx-5-x-5---xx-5-x-5---xx-5-x-5----xx-5-x-5-------------|
G|--xx-6-x-6---xx-4-x-4---xx-6-x-6----xx-6-x-6-------------|
D|---------------------------------------------------------|
A|---------------------------------------------------------|
E|---------------------------------------------------------|


havent tried the solos yet. maybe ill get them up here? if not theres most of the tab.
any questions just comment it.
-chrisitan cremer
Related for Ride A Tear tab