Song name
# A B C D E F G H I J K L M N O P Q R S T U V W X Y Z

Dispatch - Two Coins tab

Into/verse/chorus:
	          D	  C	  G

e-----------------5--(x)--3--(x)--3-----------------|
B-----------------7--(x)--5--(x)--3-----------------|
G----4h5p4--------7--(x)--5--(x)--4--3p0---3--------|
D--5--------------7--(x)--5--(x)--5------5---5p3p0--|
A-----------7--5--5--(x)--3--(x)--5-----------------|
E----------------------------(x)--3-----------------|



Interlude:
   D     Em      G      Em    D     C

e--5-----7-------10-----7-----5-----3---|
B--7-----7h8-----12-----8-----7-----5---|
G--7-----7h9-----12-----9-----7-----5---|
D--7-----7h9-----12-----9-----7-----5---|
A--5-----7-------10-----7-----5-----3---|
E---------------------------------------|


Extra guitar parts:
e------------------------------|
B------------------------------|
G------------------------------|
D--------------5---------------|
A------------5-----------------|
E--3---3h7-8-----88-7---------|

e------------------------------|
B------------------------------|
G------------------------------|
D--------------5---------------|
A------------5-----------------|
E--3---3h7-8-----88-75h7p5---|
Tap to rate this tab
# A B C D E F G H I J K L M N O P Q R S T U V W X Y Z