Song name
# A B C D E F G H I J K L M N O P Q R S T U V W X Y Z

Disturbed - Land Of Confusion tab

Song: Land of Confusion
Written by: Genesis (Phil Collins, Tony Banks, and Mike Rutherford)
Remade by: Disturbed
Difficulty: Intermediate
Tuning: Drop D (Down Half Step /// This means all Notes are Flat)

LEGEND:

/ = Slide Down
\ = Slide Up
h = Hammer on
p = Pull off
~ = Hold Note/Let Ring
PM = Palm Mute

Great song by Genesis, even better by Disturbed.

If you don't like my Tab, don't post flames and crap like that saying "You suck". This
probably THE NUMBER ONE internet guitar tab site. Go use one of the other thousands of
it has to offer. But on another note, this is my version of Land of Confusion by 
And don't forget, if you plan on playing along with the CD, remember to tune to DROP D FLAT!

This song isn't too difficult. The Guitar I Verse can be frustrating to get the rythym
first, but just practice it enough and you'll get it in time. And if you have trouble
positions during the Intro, Just use the root notes on the Low E (In this case D) 
That's what I did when playing for friends and family and concerts etc. Again, those parts
take time and practice to get.


Intro: (Recommend Only Downstrokes)

|---------------------------|---------------------------|
|---------------------------|---------------------------|
|---------------------------|---------------------------|
|--9--9--9--9--9--9--9--9---|--9--9--9--9--9--9--9--9---| x4
|--11-11-11-11-11-11-11-11--|--11-11-11-11-11-11-11-11--|
|--0--7--0--12--0--0--7--0--|--0--7--0--12--0--0--7--0--|


Verse:
Guitar I:
|--------------------------------|-----------------------------|
|--------------------------------|-----------------------------|
|--------------------------------|-----------------------------|
|--------------------------------|-----------------------------|
|--------------------------------|-----------------------------|
|--2-2----2-2-2-2-2---2-2---2-2--|--2-2--2-2-2-2--2--2-2--2-2--|
|                                                              |
|Guitar II:                                                    |
|--------------------------------|-----------------------------|
|-7/9--9~------------------------|-----------------------12-12-|
|-7/9--9~------------------------|-----------------------12-12-|
|-7/9--9~------------------------|-----------------------12-12-|
|-5/7--7~------------------------|-----------------------10-10-|
|--------------------------------|-----------------------------|

Guitar I:
|--------------------------------|-----------------------------|
|--------------------------------|-----------------------------|
|--------------------------------|-----------------------------|
|--------------------------------|-----------------------------|
|--0-0----0-0-0-0-0---0-0---0-0--|--0-0--0-0-0-0--0--0-0--0-0--|
|--------------------------------|-----------------------------|
|                                                              |
|Guitar II:                                                    |
|--------------------------------|-----------------------------|
|-10/12--12~---------------------|------------------------5-5--|
|-10/12--12~---------------------|------------------------5-5--|
|-10/12--12~---------------------|------------------------5-5--|
|-10/12--12~---------------------|------------------------3-3--|
|--------------------------------|-----------------------------|

Guitar I:
|--------------------------------|-----------------------------|
|--------------------------------|-----------------------------|
|--------------------------------|-----------------------------|
|--------------------------------|-----------------------------|
|--------------------------------|-----------------------------|
|--3-3----3-3-3-3-3---3-3---3-3--|--3-3--3-3-3-3--3--3-3--3-3--|
|                                                              |
|Guitar II:                                                    |
|--------------------------------|-----------------------------|
|-5/7--7~------------------------|------------------------7-7--|
|-5/7--7~------------------------|------------------------7-7--|
|-5/7--7~------------------------|------------------------7-7--|
|-3/5--5~------------------------|------------------------5-5--|
|--------------------------------|-----------------------------|

Guitar I:
|--------------------------------|-----------------------------|
|--------------------------------|-----------------------------|
|--------------------------------|-----------------------------|
|--------------------------------|-----------------------------|
|--------------------------------|-----------------------------|
|--2-2----2-2-2-2-2---2-2---2-2--|--2-2--2-2-2-2--2--2-2--2-2--|
|                                                              |
|Guitar II:                                                    |
|--------------------------------|-----------------------------|
|-7/9--9~------------------------|------------------------7-7--|
|-7/9--9~------------------------|------------------------7-7--|
|-7/9--9~------------------------|------------------------7-7--|
|-5/7--7~------------------------|------------------------5-5--|
|--------------------------------|-----------------------------|


|--------------------------------|
|--------------------------------|
|--------------------------------|
|--------------------------------|
|--------------------------------|
|--2-2----2-2-2-2-2---2-2---2-2--|


Pre-Chorus:

|------------------|--------------------|---------------------|
|------------------|--------------------|---------------------|
|------------------|--------------------|---------------------|
|--0-0-0-2-----2-2--|--5-5-5-7-----7-7-7--|--0-0-0-2-----2-2--|
|--0-0-0-2-----2-2--|--5-5-5-7-----7-7-7--|--0-0-0-2-----2-2--|
|--0-0-0-2-----2-2--|--5-5-5-7-----7-7-7--|--0-0-0-2-----2-2--|

|------------------------------|--------------------|
|------------------------------|--------------------|
|------------------------------|--------------------|
|--5--5--5---0-------0--0--0---|--0-0--0-2-----2-2--|
|--5--5--5---0-------0--0--0---|--0-0--0-2-----2-2--|
|--5--5--5---0-------0--0--0---|--0-0--0-2-----2-2--|

|---------------------|-------------------|---------------------------|
|---------------------|-------------------|---------------------------|
|---------------------|-------------------|---------------------------|
|--5-5-5-7-----7-7-7--|--0-0-0-2-----2-2--|--5-5-5-0----0-0----0-0-0--|
|--5-5-5-7-----7-7-7--|--0-0-0-2-----2-2--|--5-5-5-0----0-0----0-0-0--|
|--5-5-5-7-----7-7-7--|--0-0-0-2-----2-2--|--5-5-5-0----0-0----0-0-0--|


Chorus:

|------------------|-----------------|
|------------------|-----------------|
|------------------|-----------------|
|--9---10-10---10--|------5-5---4----| X4
|--7----7--7----7--|------2-2---2-2--|
|------------------|--0--------------|


Intro:

|---------------------------|---------------------------|
|---------------------------|---------------------------|
|---------------------------|---------------------------|
|--9--9--9--9--9--9--9--9---|--9--9--9--9--9--9--9--9---| x2
|--11-11-11-11-11-11-11-11--|--11-11-11-11-11-11-11-11--|
|--0--7--0--12--0--0--7--0--|--0--7--0--12--0--0--7--0--|


Verse:
Guitar I:
|--------------------------------|-----------------------------|
|--------------------------------|-----------------------------|
|--------------------------------|-----------------------------|
|--------------------------------|-----------------------------|
|--------------------------------|-----------------------------|
|--2-2----2-2-2-2-2---2-2---2-2--|--2-2--2-2-2-2--2--2-2--2-2--|
|                                                              |
|Guitar II:                                                    |
|--------------------------------|-----------------------------|
|-7/9--9~------------------------|-----------------------12-12-|
|-7/9--9~------------------------|-----------------------12-12-|
|-7/9--9~------------------------|-----------------------12-12-|
|-5/7--7~------------------------|-----------------------10-10-|
|--------------------------------|-----------------------------|

Guitar I:
|--------------------------------|-----------------------------|
|--------------------------------|-----------------------------|
|--------------------------------|-----------------------------|
|--------------------------------|-----------------------------|
|--0-0----0-0-0-0-0---0-0---0-0--|--0-0--0-0-0-0--0--0-0--0-0--|
|--------------------------------|-----------------------------|
|                                                              |
|Guitar II:                                                    |
|--------------------------------|-----------------------------|
|-10/12--12~---------------------|------------------------5-5--|
|-10/12--12~---------------------|------------------------5-5--|
|-10/12--12~---------------------|------------------------5-5--|
|-10/12--12~---------------------|------------------------3-3--|
|--------------------------------|-----------------------------|

Guitar I:
|--------------------------------|-----------------------------|
|--------------------------------|-----------------------------|
|--------------------------------|-----------------------------|
|--------------------------------|-----------------------------|
|--------------------------------|-----------------------------|
|--3-3----3-3-3-3-3---3-3---3-3--|--3-3--3-3-3-3--3--3-3--3-3--|
|                                                              |
|Guitar II:                                                    |
|--------------------------------|-----------------------------|
|-5/7--7~------------------------|------------------------7-7--|
|-5/7--7~------------------------|------------------------7-7--|
|-5/7--7~------------------------|------------------------7-7--|
|-3/5--5~------------------------|------------------------5-5--|
|--------------------------------|-----------------------------|

Guitar I:
|--------------------------------|-----------------------------|
|--------------------------------|-----------------------------|
|--------------------------------|-----------------------------|
|--------------------------------|-----------------------------|
|--------------------------------|-----------------------------|
|--2-2----2-2-2-2-2---2-2---2-2--|--2-2--2-2-2-2--2--2-2--2-2--|
|                                                              |
|Guitar II:                                                    |
|--------------------------------|-----------------------------|
|-7/9--9~------------------------|------------------------7-7--|
|-7/9--9~------------------------|------------------------7-7--|
|-7/9--9~------------------------|------------------------7-7--|
|-5/7--7~------------------------|------------------------5-5--|
|--------------------------------|-----------------------------|


|--------------------------------|
|--------------------------------|
|--------------------------------|
|--------------------------------|
|--------------------------------|
|--2-2----2-2-2-2-2---2-2---2-2--|

Pre-Chorus:

|------------------|--------------------|---------------------|
|------------------|--------------------|---------------------|
|------------------|--------------------|---------------------|
|--0-0-0-2-----2-2--|--5-5-5-7-----7-7-7--|--0-0-0-2-----2-2--|
|--0-0-0-2-----2-2--|--5-5-5-7-----7-7-7--|--0-0-0-2-----2-2--|
|--0-0-0-2-----2-2--|--5-5-5-7-----7-7-7--|--0-0-0-2-----2-2--|

|------------------------------|--------------------|
|------------------------------|--------------------|
|------------------------------|--------------------|
|--5--5--5---0-------0--0--0---|--0-0--0-2-----2-2--|
|--5--5--5---0-------0--0--0---|--0-0--0-2-----2-2--|
|--5--5--5---0-------0--0--0---|--0-0--0-2-----2-2--|

|---------------------|-------------------|---------------------------|
|---------------------|-------------------|---------------------------|
|---------------------|-------------------|---------------------------|
|--5-5-5-7-----7-7-7--|--0-0-0-2-----2-2--|--5-5-5-0----0-0----0-0-0--|
|--5-5-5-7-----7-7-7--|--0-0-0-2-----2-2--|--5-5-5-0----0-0----0-0-0--|
|--5-5-5-7-----7-7-7--|--0-0-0-2-----2-2--|--5-5-5-0----0-0----0-0-0--|


Chorus:

|------------------|-----------------|
|------------------|-----------------|
|------------------|-----------------|
|--9---10-10---10--|------5-5---4----| X4
|--7----7--7----7--|------2-2---2-2--|
|------------------|--0--------------|


Intro:

|---------------------------|---------------------------|
|---------------------------|---------------------------|
|---------------------------|---------------------------|
|--9--9--9--9--9--9--9--9---|--9--9--9--9--9--9--9--9---| x2
|--11-11-11-11-11-11-11-11--|--11-11-11-11-11-11-11-11--|
|--0--7--0--12--0--0--7--0--|--0--7--0--12--0--0--7--0--|


Interlude:

|----------------------|------------------------|
|----------------------|------------------------|
|-------1-------1------|-1----------------------|
|-----4----2--4---1--2-|---1--2--4--1--2--1-----|
|--4-------------------|---------------------2--|
|----------------------|------------------------|

|----------------------|------------------------|
|----------------------|------------------------|
|-------1-------1------|-1----------------------|
|-----4----2--4---1--2-|---1--2--4-----1--2--4--|
|--4-------------------|------------4-----------|
|----------------------|------------------------|

|----------------------|------------------------|
|----------------------|------------------------|
|-------1-------1------|-1----------------------|
|-----4----2--4---1--2-|---1--2--4--1--2--1-----|
|--4-------------------|---------------------2--|
|----------------------|------------------------|

|--------------------|-------------------|
|--------------------|-------------------|
|--------------------|-6-6-6-6-----------|
|--2-2-2-2--1-1-1-1--|-6-6-6-6--4-4-4-4--|
|--2-2-2-2--1-1-1-1--|-4-4-4-4--4-4-4-4--|
|--2-2-2-2--1-1-1-1--|----------4-4-4-4--|

|----------------------|------------------------|
|----------------------|------------------------|
|-------1-------1------|-1----------------------|
|-----4----2--4---1--2-|---1--2--4--1--2--1-----|
|--4-------------------|---------------------2--|
|----------------------|------------------------|

|----------------------|------------------------|
|----------------------|------------------------|
|-------1-------1------|-1----------------------|
|-----4----2--4---1--2-|---1--2--4-----1--2--4--|
|--4-------------------|------------4-----------|
|----------------------|------------------------|

|----------------------|------------------------|
|----------------------|------------------------|
|-------1-------1------|-1----------------------|
|-----4----2--4---1--2-|---1--2--4--1--2--1-----|
|--4-------------------|---------------------2--|
|----------------------|------------------------|

|--------------------|-------------------------|
|--------------------|-------------------------|
|--------------------|-6-6-6-6-----------------|
|--2-2-2-2--1-1-1-1--|-6-6-6-6--4-4-4-4----0~--|
|--2-2-2-2--1-1-1-1--|-4-4-4-4--4-4-4-4----0~--|
|--2-2-2-2--1-1-1-1--|----------4-4-4-4----0~--|


Solo:

|---------------|---------------|------------------|------------------|
|---------------|---------------|------------------|--------------12--|
|--9/12~----12--|--11-----------|------------------|--11--------------|
|---------------|---------12----|--10~---------10--|---------12~------|
|---------------|---------------|------------------|------------------|
|---------------|---------------|------------------|------------------|

|-15---14----------15---14-----------|-15---14-----------15---14-----------|
|----12----12-15-12---12----12-15-12-|----12----12-15-12----12----12-15h12-|
|------------------------------------|-------------------------------------|
|------------------------------------|-------------------------------------|
|------------------------------------|-------------------------------------|
|------------------------------------|-------------------------------------|

|--12h15p12--------12h15p12--------12h15p12--------12h15p12----------|
|----------15p12h15--------15p12h15--------15p12h15--------15p12h15--|
|--------------------------------------------------------------------|
|--------------------------------------------------------------------|
|--------------------------------------------------------------------|
|--------------------------------------------------------------------|

|--12----------------------------------------------------------------|
|----15p12-15p12----12-------------12h13p12--------------------------|
|----------------15----15p13p12h14----------14p12p11-12p11-14p12p11--|
|--------------------------------------------------------------------|
|--------------------------------------------------------------------|
|--------------------------------------------------------------------|

|-------------------------------12~--|---------7-----------5--|
|------------------------------------|------------------------|
|--12p11-----------------------------|--9p7h9-----------------|
|----------14p12---14----------------|------------------------|
|------------------------------------|------------------------|
|------------------------------------|------------------------|
|------------------------------------|------------------------|


Verse:
Guitar I:
|--------------------------------|-----------------------------|
|--------------------------------|-----------------------------|
|--------------------------------|-----------------------------|
|--------------------------------|-----------------------------|
|--------------------------------|-----------------------------|
|--2-2----2-2-2-2-2---2-2---2-2--|--2-2--2-2-2-2--2--2-2--2-2--|
|                                                              |
|Guitar II:                                                    |
|--------------------------------|-----------------------------|
|-7/9--9~------------------------|-----------------------12-12-|
|-7/9--9~------------------------|-----------------------12-12-|
|-7/9--9~------------------------|-----------------------12-12-|
|-5/7--7~------------------------|-----------------------10-10-|
|--------------------------------|-----------------------------|

Guitar I:
|--------------------------------|-----------------------------|
|--------------------------------|-----------------------------|
|--------------------------------|-----------------------------|
|--------------------------------|-----------------------------|
|--0-0----0-0-0-0-0---0-0---0-0--|--0-0--0-0-0-0--0--0-0--0-0--|
|--------------------------------|-----------------------------|
|                                                              |
|Guitar II:                                                    |
|--------------------------------|-----------------------------|
|-10/12--12~---------------------|------------------------5-5--|
|-10/12--12~---------------------|------------------------5-5--|
|-10/12--12~---------------------|------------------------5-5--|
|-10/12--12~---------------------|------------------------3-3--|
|--------------------------------|-----------------------------|

Guitar I:
|--------------------------------|-----------------------------|
|--------------------------------|-----------------------------|
|--------------------------------|-----------------------------|
|--------------------------------|-----------------------------|
|--------------------------------|-----------------------------|
|--3-3----3-3-3-3-3---3-3---3-3--|--3-3--3-3-3-3--3--3-3--3-3--|
|                                                              |
|Guitar II:                                                    |
|--------------------------------|-----------------------------|
|-5/7--7~------------------------|------------------------7-7--|
|-5/7--7~------------------------|------------------------7-7--|
|-5/7--7~------------------------|------------------------7-7--|
|-3/5--5~------------------------|------------------------5-5--|
|--------------------------------|-----------------------------|

Guitar I:
|--------------------------------|-----------------------------|
|--------------------------------|-----------------------------|
|--------------------------------|-----------------------------|
|--------------------------------|-----------------------------|
|--------------------------------|-----------------------------|
|--2-2----2-2-2-2-2---2-2---2-2--|--2-2--2-2-2-2--2--2-2--2-2--|
|                                                              |
|Guitar II:                                                    |
|--------------------------------|-----------------------------|
|-7/9--9~------------------------|------------------------7-7--|
|-7/9--9~------------------------|------------------------7-7--|
|-7/9--9~------------------------|------------------------7-7--|
|-5/7--7~------------------------|------------------------5-5--|
|--------------------------------|-----------------------------|


|--------------------------------|
|--------------------------------|
|--------------------------------|
|--------------------------------|
|--------------------------------|
|--2-2----2-2-2-2-2---2-2---2-2--|

Pre-Chorus:

|------------------|--------------------|---------------------|
|------------------|--------------------|---------------------|
|------------------|--------------------|---------------------|
|--0-0-0-2-----2-2--|--5-5-5-7-----7-7-7--|--0-0-0-2-----2-2--|
|--0-0-0-2-----2-2--|--5-5-5-7-----7-7-7--|--0-0-0-2-----2-2--|
|--0-0-0-2-----2-2--|--5-5-5-7-----7-7-7--|--0-0-0-2-----2-2--|

|------------------------------|--------------------|
|------------------------------|--------------------|
|------------------------------|--------------------|
|--5--5--5---0-------0--0--0---|--0-0--0-2-----2-2--|
|--5--5--5---0-------0--0--0---|--0-0--0-2-----2-2--|
|--5--5--5---0-------0--0--0---|--0-0--0-2-----2-2--|

|---------------------|-------------------|---------------------------|
|---------------------|-------------------|---------------------------|
|---------------------|-------------------|---------------------------|
|--5-5-5-7-----7-7-7--|--0-0-0-2-----2-2--|--5-5-5-0----0-0----0-0-0--|
|--5-5-5-7-----7-7-7--|--0-0-0-2-----2-2--|--5-5-5-0----0-0----0-0-0--|
|--5-5-5-7-----7-7-7--|--0-0-0-2-----2-2--|--5-5-5-0----0-0----0-0-0--|


Chorus:

|------------------|-----------------|
|------------------|-----------------|
|------------------|-----------------|
|--9---10-10---10--|------5-5---4----| X4
|--7----7--7----7--|------2-2---2-2--|
|------------------|--0--------------|


Outro:

|---------------------------|---------------------------|
|---------------------------|---------------------------|
|---------------------------|---------------------------|
|--9--9--9--9--9--9--9--9---|--9--9--9--9--9--9--9--9---| x2
|--11-11-11-11-11-11-11-11--|--11-11-11-11-11-11-11-11--|
|--0--7--0--12--0--0--7--0--|--0--7--0--12--0--0--7--0--|

LYRICS:

Verse:
I must have dreamed a thousand dreams
Been haunted by a million screams
But I can hear the marching feet
They're moving into the street

Now, did you read the news today?
They say the danger has gone away
But I can see the fire's still alight
They're burning into the night

Pre-Chorus:
There's too many men, too many people
Making too many problems
And there's not much love to go around
Can't you see this is the land of confusion?

Chorus:
This is the world we live in
And these are the hands we're given
Use them and let's start trying
To make it a place worth living in

Verse:
Oh, superman, where are you now?
When everything's gone wrong somehow?
The men of steel, I hate these men of power
I'm losing control by the hour

Pre-Chorus:
This is the time, this is the place
So we look for the future
But there's not much love to go around
Tell me why this is the land of confusion

Chorus:
This is the world we live in
And these are the hands we're given
Use them and let's start trying
To make it a place worth living in

Interlude:
I remember long ago
When the sun was shining
And all the stars were bright all through the night
In the wake up this madness, as I held you tight
So long ago

Verse:
I won't be coming home tonight
My generation will put it right
We're not just making promises
That we know we'll never keep

Pre-Chorus:
There's too many men, too many people
Making too many problems
And there's not much love to go round
Can't you see this is the land of confusion?

Chorus:
Now, this is the world we live in
And these are the hands we're given
Use them and let's start trying
To make it a place worth fighting for

This is the world we live in
And these are the names we're given
Stand up and let's start showing
Just where our lives are going to

That's all there is Folks. If you got any questions email me at zodiac.reaper@hotmail.com

~Cory
Tap to rate this tab
 
# A B C D E F G H I J K L M N O P Q R S T U V W X Y Z