Song name
# A B C D E F G H I J K L M N O P Q R S T U V W X Y Z

Disturbed - Down With The Sickness tab

Help us improve GuitareTab! Take a short survey!
intro

e ------------------------------------------------------------------------|
B ------------------------------------------------------------------------|
G ------------------------------------------------------------------------|
D ------------------------------------------------------------------------|
A -7-10-7-8-7-------------------------------------------------------------|
D ------------------------------------------------------------------------|
play four time palm muted
then play

e ------------------------------------------------------------------------|
B ------------------------------------------------------------------------|
G ------------------------------------------------------------------------|
D -2---2---2--2---2---2--2---2--------------------------------------------|
A -2---2---2--2---2---2--2---2--------------------------------------------|
D -2-5-2-3-2--2-5-2-3-2--2-5-2-3------------------------------------------|
on fourt time play

D -2---2---2--2---2---2--3333--------------------------------------------|
A -2---2---2--2---2---2--3333--------------------------------------------|
D -2-5-2-3-2--2-5-2-3-2--3333--------------------------------------------|

then on second time play 3's 8 times instead of four

e ------------------------------------------------------------------------|
B ----------------------------------------------5-------------------------|
G ---------------------------------------------5--------------------------|
D -22222-22222-2222-play four times then -33------------------------------|
A -22222-22222-2222-----------------------33------------------------------|
D -22222-22222-2222-----------------------33------------------------------|
harmonics on the fives
then reapeat again but instead of the harmonics you play 3's four times

do both parts 2 times
then play

e ----on fourth time play-------------------------------------------------|
B ----------------------------------------------------5-------------------|
G ---------------------------------------------------5--------------------|
D ---------------------------------------------33-------------------------|
A ---------------------------------------------33-------------------------|
D -25232--22222--2222-------25232--22222--2222-33-------------------------|
harmonics on the fives again
in the second part of this play 3's four times like before on the fourt time

then

on fives do harmonics- on twelve do vibrato bend
e ------------------------------------------------------------------------|
B ---------55----------5--------------55-----------5----------------------|
G ----------------------5---------------------------5---------------------|
D -2h232-------2h232-----------2h232-------2h232--------------------------|
A -2h232-------2h232-----------2h232-------2h232--------------------------|
D -2h232-------2h232------12---2h232-------2h232--------------------------|

play two times

then

let rest for about 7 seconds
e ------------------------------------------------------------------------|
B ------------------------------------------------------------------------|
G ------------------------------------------------------------------------|
D -2----------------------------------------------------------------------|
A -2----------------------------------------------------------------------|
D -2----------------------------------------------------------------------|

e ------------------------------------------------------------------------|
B ----------------------------------------------5-------------------------|
G ---------------------------------------------5--------------------------|
D -22222-22222-2222-play four times then -33------------------------------|
A -22222-22222-2222-----------------------33------------------------------|
D -22222-22222-2222-----------------------33------------------------------|
harmonics on the fives
then reapeat again but instead of the harmonics you play 3's four times

do both parts 2 times
then play

e ----on fourth time play-------------------------------------------------|
B ----------------------------------------------------5-------------------|
G ---------------------------------------------------5--------------------|
D ---------------------------------------------33-------------------------|
A ---------------------------------------------33-------------------------|
D -25232--22222--2222-------25232--22222--2222-33-------------------------|
harmonics on the fives again
in the second part of this play 3's four times like before on the fourt time

then

on fives do harmonics- on twelve do vibrato bend
e ------------------------------------------------------------------------|
B ---------55----------5--------------55-----------5----------------------|
G ----------------------5---------------------------5---------------------|
D -2h232-------2h232-----------2h232-------2h232--------------------------|
A -2h232-------2h232-----------2h232-------2h232--------------------------|
D -2h232-------2h232------12---2h232-------2h232--------------------------|
then

**= pm
vibrato on firt four & vibrato on first seven
e ------------------------------------------------------------------------|
B ------------------------------------------------------------------------|
G ------------------------------------------------------------------------|
D ----------------------------------------------------65------------------|
A ------34---7-77--43------repeat 3 times-----34-7-77-43------------------|
D -4-44---------------22------------------4-44-----------22---------------|
     **        **     **                    **     **    **

e --------------------------------------------------------------------------|
B --------------------------------------------------------------------------|
G --------------------------------------------------------------------------|
D -4-44-56-22---------------------------------------------------------------|
A -4-44-34-22---------------------------------------------------------------|
D -4-44----22---------------------------------------------------------------|
     **    **
this part changes a little bit quicker and with out the twos i did not have time to 
this cuz i have shcool tomorrow so i only have time to do the ending so i hope u enjoi my tab

e ------------------------------------------------------------------------|
B ------------------------------------------------------------------------|
G ------------------------------------------------------------------------|
D ------------------------------------------------------------------------|
A --9-12-9-10-9--9-12-9-10-9--9-12-9-10-----------------------------------|
D ------------------------------------------------------------------------|


fouth time play 5's 4 times
e --------------------------------------------------------------------------|
B --------------------------------------------------------------------------|
G --------------------------------------------------------------------------|
D -4h-4-4-4h-4-4-4h-4-------------------------------------------------------|
A -4h-4-4-4h-4-4-4h-4-------------------------------------------------------|
D -4h7454-4h7454-4h745------------------------------------------------------|

reapeat this twice


that is it right from the video i watched :) :) :) :) :) plays rate with fairness this 
my first tab and i know it is wort at least a four otu of five
Related for Down With The Sickness tab