Guitaretab - guitar tabs
Song name
# A B C D E F G H I J K L M N O P Q R S T U V W X Y Z

Disturbed - Facade tab

-------------------------------------------------------------------------------
			     Fašade - Disturbed
-------------------------------------------------------------------------------
Tabbed by: Robin
Email: robinwickihalter@msn.com

Tuning: Drop C (C G C F A D)

This will you need for the Tab:

h = Hammer On
\ = Slide Down


D|---------------------------------------------------------------------------|
A|---------------------------------------------------------------------------|
F|---------------------------------------------------------------------------|
C|---------------------------------------------------------------------------|
G|---------3h5---------------------------------------------------------------|
C|---3--0-------6--0--3--3h5--3--0--3--0--3--6--6--5\------------------------|
[ Tab from: http://www.guitaretab.com/d/disturbed/189732.html ]
D|---------------------------------------------------------------------------|
A|---------------------------------------------------------------------------|
F|---------------------------------------------------------------------------|
C|---------------------------------------------------------------------------|
G|---------3h5---------------------------------------------------------------|
C|---3--0-------6--0--3--3h5--3--0--3--0--3--6--6--5--6----------------------|

D|---------------------------------------------------------------------------|
A|---------------------------------------------------------------------------|
F|---------------------------------------------------------------------------|
C|---------------------------------------------------------------------------|
G|---------3h5---------------------------------------------------------------|
C|---3--0-------6--0--3--3h5--3--0--3--0--3--6--6--5\------------------------|

D|---------------------------------------------------------------------------|
A|---------------------------------------------------------------------------|
F|---------------------------------------------------------------------------|
C|---8--8--8--8--8--8--8--8--7--7--7--10--10--10--7--7-----------------------|
G|---8--8--8--8--8--8--8--8--7--7--7--10--10--10--7--7-----------------------|
C|---8--8--8--8--8--8--8--8--7--7--7--10--10--10--7--7-----------------------|
Related for Facade tab