Song name
# A B C D E F G H I J K L M N O P Q R S T U V W X Y Z

Disturbed - Perfect Insanity tab

-------------------------------------------------------------------------------
			     Perfect Insanity (New Version) - Disturbed
-------------------------------------------------------------------------------
Tabbed by: Michael Capanna and Mitch Malik
Email: SpyderPB6@hotmail and Mitch_malik@hotmail.com

Solo by: Mitch Malik 
 

We spent quite some time with this song to ensure it is very close. 
Please do not copy this and say it is your work. Have fun with this,
it is a awesome song! Let us know what you think!!!

+ - This is a natural harmonic. Listen to the song to hear it.
x - Mute notes. Listen hard in the song, they are there. Just get the feel for them. 
~ - Vibrato. 
P - Pull-Off
H - Hammer-On

Listen to the song for timing.





Tuning: C# G# C# F# A# D#  




e|---------------------------------------------------------------------------| Intro/Chorus Riff 1
B|---------------------------------------------------------------------------|
G|---------------------------------------------------------------------------|
D|---------------------------------------------------------------------------|
A|--0-2---5-7---3/2--0H2H5--5/2---5-7---3/2----------------------------------|
E|--0-2---------3/2---------5/2---------3/222222222--------------------------| X1
                                           pm----pm    
                 FAST HAMMER ON!        

                 
e|---------------------------------------------------------------------------| Intro/Chorus Riff 2
B|---------------------------------------------------------------------------|
G|---------------------------------------------------------------------------|
D|---------------------------------------------------------------------------|
A|--0-2-2--5-7---3/2--0H2H5--5/2---5-7---3/2---------------------------------|
E|--0-2-2--------3/2---------5/2---------3/2-233445566-----------------------| X1
                                             +++++++++                                      
                    FAST HAMMER ON!
                                             ow ow ow ow ow owwwww!!!

e|---------------------------------------------------------------------------| Intro/Chorus Riff 3
B|---------------------------------------------------------------------------|
G|---------------------------------------------------------------------------|
D|---------------------------------------------------------------------------|
A|--0-2-2--5-7---3/2--0H2H5--5/2---5-7---3/2---------------------------------|
E|--0-2-2--------3/2---------5/2---------3/222222222-------------------------| X1
                                            pm----pm 
                   FAST HAMMER ON!

e|---------------------------------------------------------------------------| Intro/Chorus Riff 4
B|---------------------------------------------------------------------------|
G|---------------------------------------------------------------------------|
D|---------------------------------------------------------------------------|
A|--0-2-2--5-7---3/2--0H2H5--5/2---5-7---3/2---------------------------------|
E|--0-2-2--------3/2---------5/2---------3/2---------------------------------| X1               

                   FAST HAMMER ON!

e|---------------------------------------------------------------------------| Verse Riff
B|---------------------------------------------------------------------------|
G|---------------------------------------------------------------------------|
D|-2-xx-xx-5-xx-xx-4-xx-xx-3-xx-5-xx-2-xx-xx-4-xx-xx-4-xx-xx-5-xx-7-xx-2-x---|
A|-2-xx-xx-3-xx-xx-4-xx-xx-3-xx-5-xx-2-xx-xx-2-xx-xx-4-xx-xx-5-xx-7-xx-2-x---|
E|-2-xx-xx---xx-xx-4-xx-xx-3-xx-5-xx-2-xx-xx---xx-xx-4-xx-xx-5-xx-7-xx-2-x---|

e|---------------------------------------------------------------------------| 
B|---------------------------------------------------------------------------|
G|---------------------------------------------------------------------------|
D|-2-xx-xx-5-xx-xx-4-xx-xx-3-xx-5-xx-2-xx-xx-4-xx-xx-4-xx-xx-5-xx-7-xx-10----|
A|-2-xx-xx-3-xx-xx-4-xx-xx-3-xx-5-xx-2-xx-xx-2-xx-xx-4-xx-xx-5-xx-7-xx-10----|
E|-2-xx-xx---xx-xx-4-xx-xx-3-xx-5-xx-2-xx-xx---xx-xx-4-xx-xx-5-xx-7-xx-10----| X1

e|---------------------------------------------------------------------------| Pre Chorus
B|---------------------------------------------------------------------------|
G|---------------------------------------------------------------------------|
D|-5-5-5--2-------3-3-3--2-------5-5-5--2------------------------------------|
A|-5-5-5--2-------1-1-1--2-------5-5-5--2------------------------------------|
E|-5-5-5--2--------------2-------5-5-5--2-----7/8-7/8-7/8-7/8-7/8--7---------| X1
                                                  


e|---------------------------------------------------------------------------| Intro/Chorus Riff 1
B|---------------------------------------------------------------------------|
G|---------------------------------------------------------------------------|
D|---------------------------------------------------------------------------|
A|--0-2---5-7---3/2--0H2H5--5/2---5-7---3/2----------------------------------|
E|--0-2---------3/2---------5/2---------3/222222222--------------------------| X1
                                           pm----pm                
                
                 
e|---------------------------------------------------------------------------| Intro/Chorus Riff 2
B|---------------------------------------------------------------------------|
G|---------------------------------------------------------------------------|
D|---------------------------------------------------------------------------|
A|--0-2-2---5-7---3/2--0H2H5--5/2---5-7---3/2--------------------------------|
E|--0-2-2---------3/2---------5/2---------3/2-233445566-----------------------| X1
                                              +++++++++                                      

                                       
e|---------------------------------------------------------------------------| Intro/Chorus Riff 3
B|---------------------------------------------------------------------------|
G|---------------------------------------------------------------------------|
D|---------------------------------------------------------------------------|
A|--0-2-2--5-7---3/2--0H2H5--5/2---5-7---3/2---------------------------------|
E|--0-2-2--------3/2---------5/2---------3/222222222-------------------------| X1
                                            pm----pm                

e|---------------------------------------------------------------------------| Intro/Chorus Riff 4
B|---------------------------------------------------------------------------|
G|---------------------------------------------------------------------------|
D|---------------------------------------------------------------------------|
A|--0-2-2--5-7---3/2--0H2H5--5/2---5-7---3/2--2------------------------------|
E|--0-2-2--------3/2---------5/2---------3/2--2------------------------------| X1

                                                           

e|---------------------------------------------------------------------------| Verse Riff
B|---------------------------------------------------------------------------|
G|---------------------------------------------------------------------------|
D|-2-xx-xx-5-xx-xx-4-xx-xx-3-xx-5-xx-2-xx-xx-4-xx-xx-4-xx-xx-5-xx-7-xx-2-x---|
A|-2-xx-xx-3-xx-xx-4-xx-xx-3-xx-5-xx-2-xx-xx-2-xx-xx-4-xx-xx-5-xx-7-xx-2-x---|
E|-2-xx-xx---xx-xx-4-xx-xx-3-xx-5-xx-2-xx-xx---xx-xx-4-xx-xx-5-xx-7-xx-2-x---|

e|---------------------------------------------------------------------------| 
B|---------------------------------------------------------------------------|
G|---------------------------------------------------------------------------|
D|-2-xx-xx-5-xx-xx-4-xx-xx-3-xx-5-xx-2-xx-xx-4-xx-xx-4-xx-xx-5-xx-7-xx-10----|
A|-2-xx-xx-3-xx-xx-4-xx-xx-3-xx-5-xx-2-xx-xx-2-xx-xx-4-xx-xx-5-xx-7-xx-10----|
E|-2-xx-xx---xx-xx-4-xx-xx-3-xx-5-xx-2-xx-xx---xx-xx-4-xx-xx-5-xx-7-xx-10----| X1.


e|---------------------------------------------------------------------------| Pre Chorus
B|---------------------------------------------------------------------------|
G|---------------------------------------------------------------------------|
D|-5-5-5--2-------3-3-3--2-------5-5-5--2------------------------------------|
A|-5-5-5--2-------1-1-1--2-------5-5-5--2------------------------------------|
E|-5-5-5--2--------------2-------5-5-5--2-----7/8-7/8-7/8-7/8-7/8--7---------| X1
                                              


e|---------------------------------------------------------------------------| Intro/Chorus Riff 1
B|---------------------------------------------------------------------------|
G|---------------------------------------------------------------------------|
D|---------------------------------------------------------------------------|
A|--0-2-2--5-7---3/2--0H2H5--5/2---5-7---3/2---------------------------------|
E|--0-2-2--------3/2---------5/2---------3/222222222-------------------------| X1
                                            pm----pm                
                  

                 
e|---------------------------------------------------------------------------| Intro/Chorus Riff 2
B|---------------------------------------------------------------------------|
G|---------------------------------------------------------------------------|
D|---------------------------------------------------------------------------|
A|--0-2-2---5-7---3/2--0H2H5--5/2---5-7---3/2--------------------------------|
E|--0-2-2---------3/2---------5/2---------3/2-233445566----------------------| X1
                                              +++++++++                                      

                                       

e|---------------------------------------------------------------------------| Intro/Chorus Riff 3
B|---------------------------------------------------------------------------|
G|---------------------------------------------------------------------------|
D|---------------------------------------------------------------------------|
A|--0-2-2--5-7---3/2--0H2H5--5/2---5-7---3/2---------------------------------|
E|--0-2-2--------3/2---------5/2---------3/222222222-------------------------|
                                            pm----pm                


e|-------------------------------------------0--0----------------------------| Intro/Chorus Riff 4
B|-------------------------------------------0--0----------------------------|
G|-------------------------------------------0--0----------------------------|
D|-------------------------------------------2--2----------------------------|
A|--0-2-2---5-7---3/2--0H2H5--5/2---5-7-3/2--2--2----------------------------|
E|--0-2-2---------3/2---------5/2-------3/2--2--2----------------------------| X1
                       
                       

   |Arpeggiated|
   |           |
e|--2--3------------2---------------------------------------------------------| Interlude 
B|--5----5----------3---------------------------------------------------------|
G|--4---------------2---------------------------------------------------------|
D|------------------0---------------------------------------------------------|
A|------------------0---------------------------------------------------------|
E|--2---------------0---------------------------------------------------------| X2

(Strike the notes individualy for the Arpeggiated part, but make sure you hold them)


    Tapped
e|-15p12p10H12p10H12(4 Times)15p12p10H12-17p12p10H12-------------------------| Solo
B|---------------------------------------------------------------------------|
G|---------------------------------------------------------------------------|
D|---------------------------------------------------------------------------|
A|---------------------------------------------------------------------------|
E|---------------------------------------------------------------------------| X1

    Tapped
e|-15p12p9H12p9H12(4 Times)15p12p9H12-17p12p9H12-----------------------------| Solo
B|---------------------------------------------------------------------------|
G|---------------------------------------------------------------------------|
D|---------------------------------------------------------------------------|
A|---------------------------------------------------------------------------|
E|---------------------------------------------------------------------------| X1

    Tapped
e|-6H7p6H7p6H7-12p7p6H7p6H7--15p7p6H7p6H7-12p7p6H7p6H7-15p7p6H7-12p7p6H7-----| Solo
B|---------------------------------------------------------------------------|
G|---------------------------------------------------------------------------|
D|---------------------------------------------------------------------------|
A|---------------------------------------------------------------------------|
E|---------------------------------------------------------------------------| X1


e|-6p5-----6h7p6p5-----6p5------6H7p6p5-----6p5-----6H7p6p5------------------| Solo
B|-----8p5---------8p5-----8p5----------8p5-----8p5---------8p5~~~-----------|
G|---------------------------------------------------------------------------|
D|---------------------------------------------------------------------------|
A|---------------------------------------------------------------------------|
E|---------------------------------------------------------------------------| X1


e|---------------------------------------------------------------------------| Solo Rythem
B|---------------------------------------------------------------------------|
G|---------------------------------------------------------------------------|
D|--9-9-9---7/9--------------------------------------------------------------|
A|--7-7-7---5/7-3\2----------------------------------------------------------|
E|--------------3\2----------------------------------------------------------| X4


e|---------------------------------------------------------------------------| Outro 1
B|---------------------------------------------------------------------------|
G|---------------------------------------------------------------------------|
D|--9-9-9---7/9---------12---------------------------------------------------|
A|--7-7-7---5/7-3\2-xx--10---------------------------------------------------|
E|--------------3\2-xx-------------------------------------------------------| X7
                         

e|---------------------------------------------------------------------------| Outro 2
B|---------------------------------------------------------------------------|
G|---------------------------------------------------------------------------|
D|---------7/9---------------------------------------------------------------|
A|--9-9-9--5/7--3\2-xx-------------------------------------------------------|
E|--7-7-7-------3\2-xx---/////////////////-----------------------------------| X1

                         Pick Slide Here Up or Down whatever                        
 
e|---------------------------------------------------------------------------|Outro 4
B|---------------------------------------------------------------------------|    
G|---------------------------------------------------------------------------|  
D|-------------------------------------------------222-----------------------|          
A|--2--3\2-------2--3\2-222-3\2-222-3\2-222-3\2-22-222-----------------------|   
E|--2--3\2-X4----2--3\2-222-3\2-222-3\2-222-3\2-22-222-----------------------| X1  

Mind ima losta my mind....



THATS IT!!! LET US KNOW WHAT YOU THINK!
Tap to rate this tab
 
# A B C D E F G H I J K L M N O P Q R S T U V W X Y Z