Song name
# A B C D E F G H I J K L M N O P Q R S T U V W X Y Z

Disturbed - Perfect Insanity tab

Tuning: Half step down

h: Hammer-on
p: pull-off


[Intro and Chorus]
|------------------------------------------------------------|
|------------------------------------------------------------|
|------------------------------------------------------------|
|--2-2-2-----------------------------------------------------|
|--2-2-2---5h7---3-2-----3h5---5-2-----5h7---3-2-------------|
|--0-0-0-0-----0-1-0-0-0-----0-3-0-0-0-----0-1-0-0-0-0-0-0-0-|

[after two times, David does his "ah ah ah ah ah ow"]
[
[Repeat 4x]

[Verse]
Come inside and be afraid, 
of this impressive mess i've made, 
you may take a look now you will find.
|-----------------------------------------------------|
|-----------------------------------------------------|
|-----------------------------------------------------|
|--2------------5-------------------------------------|
|--2------------3------------4------------3-----5-----|
|--0-0-0-0--0-0---0-0-0--0-0-2-0-0-0--0-0-1-0-0-3-0-0-|


|-----------------------------------------------------|
|-----------------------------------------------------|
|-----------------------------------------------------|
|--2------------5-------------------------------------|
|--2------------3------------4------------5-----7-----|
|--0-0-0-0--0-0---0-0-0--0-0-2-0-0-0--0-0-3-0-0-5-0-0-|


i have thrown away my vice, 
done away with paradise, 
see what's going on inside my mind.

[The more complicated half of the verse would go here if i knew how it went]

[Bridge]
please let me out, please let me out,
|--------------------------------------------------------------|
|--------------------------------------------------------------|
|--------------------------------------------------------------|
|--------------------------------3-3-3-------------------------|
|--3-3-3-2-----------------------1-1-1-2-----------------------|
|--1-1-1-0-0-0-0-0-0-0-0-0-0-0-0-------0-0-0-0-0-0-0-0-0-0-0-0-|


|------------------------|
|------------------------|
|------------------------|
|------------------------|
|--3-3-3-2---------------|
|--1-1-1-0-0-0-0-0-0-0-0-|

please let ME!

|----------------------------|
|----------------------------|
|----------------------------|
|----------------------------|
|--7h8--7h8--7h8--7h8--7h8-7-|
|----------------------------|

--[Chorus]--
branded like an animal, i can still feel the burn in my mind,
i do believe that you made your message clear. 
deprivating isolating all that i feel, 
leaving me with images i know are not real are those, 
words of condemnation that i hear?
|------------------------------------------------------------|
|------------------------------------------------------------|
|------------------------------------------------------------|
|--2-2-2-----------------------------------------------------|
|--2-2-2---5h7---3-2-----3h5---5-2-----5h7---3-2-------------|
|--0-0-0-0-----0-1-0-0-0-----0-3-0-0-0-----0-1-0-0-0-0-0-0-0-|
[Repeat 4x]

--[Verse]--
come inside now i implore,
do you think you can restore,
the crucial pieces missing from my brain,
what seems to be the matter dear,
why do you cry and shake with fear,
i've only had the best dub me insane.
|-----------------------------------------------------|
|-----------------------------------------------------|
|-----------------------------------------------------|
|--2------------5-------------------------------------|
|--2------------3------------4------------3-----5-----|
|--0-0-0-0--0-0---0-0-0--0-0-2-0-0-0--0-0-1-0-0-3-0-0-|


|-----------------------------------------------------|
|-----------------------------------------------------|
|-----------------------------------------------------|
|--2------------5-------------------------------------|
|--2------------3------------4------------5-----7-----|
|--0-0-0-0--0-0---0-0-0--0-0-2-0-0-0--0-0-3-0-0-5-0-0-|

--[bridge]--


--[Chorus]--


[Interlude]
don't know how much i can take,
secret thoughts inside me wake
i've lost what was within me,
oh sweet insanity.

don't know how much i can take,
secret thoughts inside me wake
i've lost what was within me,
oh sweet insanity.
|------0-2-3-0----2-|
|----0------------3-|
|--0--------------4-|
|-------------------|
|-------------------|
|-------------------|


[Solo]
[David takes a deep breath]
|--15p10h12p10h12p10h15p10h12p10h12p10h15p10h12p10h12p10h15-|
|-----------------------------------------------------------|
|-----------------------------------------------------------|
|-----------------------------------------------------------|
|-----------------------------------------------------------|
|-----------------------------------------------------------|


|--10h12p10h12p10h15p10h12p10h17p10h15p10-|
|-----------------------------------------|
|-----------------------------------------|
|-----------------------------------------|
|-----------------------------------------|
|-----------------------------------------|


|--15p9h12p9h12p9h15p9h12p9h12p9h15p9h12p9h12p9h15-|
|--------------------------------------------------|
|--------------------------------------------------|
|--------------------------------------------------|
|--------------------------------------------------|
|--------------------------------------------------|


|--9h12p9h12p9h15p9h12p9h17p9h15p9-|
|----------------------------------|
|----------------------------------|
|----------------------------------|
|----------------------------------|
|----------------------------------|


|--9p6h7p6h7p6h12p6h7p6h7p6h9p6h7p6h7p6h12p6h7p6h7p6h9p6h7p6h12p6h7p6-|
|---------------------------------------------------------------------|
|---------------------------------------------------------------------|
|---------------------------------------------------------------------|
|---------------------------------------------------------------------|
|---------------------------------------------------------------------|


|--6p3h4p3h6p3h4p3h4p3h6p3h4p3h6p3h4p3h4p3h6p3h4p3h6p3h4p3h6p3h4p3-3-|
|--------------------------------------------------------------------|
|--------------------------------------------------------------------|
|--------------------------------------------------------------------|
|--------------------------------------------------------------------|
|--------------------------------------------------------------------|


[Outro]
now i try again to find,
the thing that was my mind,
behold the undersigned,
who said i've lost my mind?

now i try again to find,
the thing that was my mind,
behold the undersigned,
who said i've lost my mind?
|----------------------------|
|----------------------------|
|----------------------------|
|--------------------------3-|
|--2-2-2---5/7---3-2-------1-|
|--0-0-0-0-3/5-0-1-0-0-0-0---|

[Repeat 8x]
i've lost my mind
i've lost my mind i've lost my
mind, i've lost my mind i've lost my
mind, i've lost my mind i've lost my
mind, i've lost my mind i've lost
|----------------------------|
|----------------------------|
|----------------------------|
|--2-------------------------|
|--2-----------3-2-----------|
|--0-0-0-0-000-1-0-0-0-0-0-0-|

[Repeat 4x]
mind, i've lost my mind i've lost my
mind, i've lost my mind i've lost my
mind, i've lost my mind i've lost my
mind, i've lost my mind i've lost my
mind.
|----------------------------------------------------|
|----------------------------------------------------|
|----------------------------------------------------|
|--2-------------------------------------------3-----|
|--2-----------3-2-----3-3-2-----------3-2-----1-3-2-|
|--0-0-0-0-000-1-0-0-0-1-1-0-0-0-0-000-1-0-0-0---1-0-|

[Repeat 4x]

|--------|
|--------|
|--------|
|--2-2-2-|
|--2-2-2-|
|--0-0-0-|

[End]
Tap to rate this tab
 
# A B C D E F G H I J K L M N O P Q R S T U V W X Y Z