Song name
# A B C D E F G H I J K L M N O P Q R S T U V W X Y Z

Disturbed - The Curse tab

-------------------------------------------------------------------------------
			     The Curse - Disturbed
-------------------------------------------------------------------------------
Tabbed by: Michael Capanna	
Email: SpyderPB6@hotmail.com


Here we have The Curse. Listening to this song I just had to give a shot! Sure it isn't 
perfect, but it is close, this only took a day to tab so please email me your comments
and feedback, and I will be happy to implement corrections into this tab. I did not tab
the solo as it will require a considerable amount of time. Please don't kill me on timing
I like to leave that up to you guys!

I believe the chorus is two guitar tracks, I did my best to implement them into one.
As always listen for timing!! Please donít copy this and say it is your own work!!

Have fun with this one! Another great one by Disturbed!

LISTEN HARD FOR TIMING!



Tuning:CGCFAD





| / or\ slides
| h  hammer-on
| x  Mute note
| PM Palm Mute

Intro X3                                                            0:00 to 0:26

D|------------------------------------------------------------------------------|
A|------------------------------------------------------------------------------|
F|------------------------------------------------------------------------------|
C|------------------------------------------------------------------------------|
G|-0h5/6-0h5/6-0h5/6-0h5/6-0h5/6---0h5/6-0h5/6-0h4/5-0h7/8-0h4------------------|
C|------------------------------------------------------------------------------|

                                      Fast hammer ons.

D|------------------------------------------------------------------------------|
A|------------------------------------------------------------------------------|
F|------------------------------------------------------------------------------|
C|------------------------------------------------------------------------------|
G|-0h5/6-0h5/6-0h5/6-0h5/6-0h5/6---0h5/6-0h5/6--8-----7-------------------------|
C|----------------------------------------------8-00007-------------------------|

Verse X2                                                            0:27 to 0:42

D|------------------------------------------------------------------------------| 
A|------------------------------------------------------------------------------|
F|------------------------------------------------------------------------------|
C|------------------------------------------------------------------------------|
G|---5/6\5-------5/6\5----------------5/6\5-------5/6\5-------------------------|
C|-0-------0656---------0656-8-00-88--------0656---------06506-0-8-00--05-------|


Pre-Chrous X1                                                       0:43 to 0:51

D|------------------------------------------------------------------------------|
A|------------------------------------------------------------------------------|
F|------------------------------------------------------------------------------|
C|------------------------------------------------------------------------------|
G|------------------------------------------------------------------------------|
C|-0--00-00-3-00-00--0--00-00-3-00-00--0--00-00-3-00-00--0--00-00-3-00-00-0-----|
   PM--------------------------------------------------------------------PM


Chorus X1                                                           0:51 to 1:08

D|------------------------------------------------------------------------------|
A|-33/55------------------------------------------------------------------------|
F|-22/33----9/105/7755--------------5555555577777777----------------------------|
C|-0-----6--7/8-3/5-------------------------------------------------------------|
G|-0-----6--7/8-3/5-------------------------------------------------------------|
C|-0-----6--7/8-3/5---Three-Times------------------------xx-3-------------------|
                                    PM-------------PM (light)                          
Timing here varies, listen hard.    



Intro X1                                                            1:09 to 1:17
D|------------------------------------------------------------------------------|
A|------------------------------------------------------------------------------|
F|------------------------------------------------------------------------------|
C|------------------------------------------------------------------------------|
G|-0h5/6-0h5/6-0h5/6-0h5/6-0h5/6---0h5/6-0h5/6-0h4/5-0h7/8-0h4------------------|
C|------------------------------------------------------------------------------|

                                      Fast hammer ons.

D|------------------------------------------------------------------------------|
A|------------------------------------------------------------------------------|
F|------------------------------------------------------------------------------|
C|------------------------------------------------------------------------------|
G|-0h5/6-0h5/6-0h5/6-0h5/6-0h5/6---0h5/6-0h5/6--8-----7-------------------------|
C|----------------------------------------------8-00007-------------------------|


Verse X2                                                            1:18 to 1:34

D|------------------------------------------------------------------------------| 
A|------------------------------------------------------------------------------|
F|------------------------------------------------------------------------------|
C|------------------------------------------------------------------------------|
G|---5/6\5-------5/6\5----------------5/6\5-------5/6\5-------------------------|
C|-0-------0656---------0656-8-00-88--------0656---------06506-0-8-00--05-------|


Pre-Chrous X1                                                       1:35 to 1:43

D|------------------------------------------------------------------------------|
A|------------------------------------------------------------------------------|
F|------------------------------------------------------------------------------|
C|------------------------------------------------------------------------------|
G|------------------------------------------------------------------------------|
C|-0--00-00-3-00-00--0--00-00-3-00-00--0--00-00-3-00-00--0--00-00-3-00-00-0-----|
   PM--------------------------------------------------------------------PM 


Chorus X1                                                           1:44 to 2:01

D|------------------------------------------------------------------------------|
A|-33/55------------------------------------------------------------------------|
F|-22/33----9/105/7755--------------5555555577777777----------------------------|
C|-0-----6--7/8-3/5-------------------------------------------------------------|
G|-0-----6--7/8-3/5-------------------------------------------------------------|
C|-0-----6--7/8-3/5---Three-Times------------------------xx-3-------------------|
                                    PM-------------PM (light)                          
Timing here varies, listen hard.     


Solo Rythem X4                                                      2:01 to 2:32

D|------------------------------------------------------------------------------|
A|------------------------------------------------------------------------------|
F|------------------------------------------------------------------------------|
C|-7/6\7---8---7\9---7/6\7---8---7\9---7/6\7---8---7\9-----7/6\7--8-------------|
G|-5/4\5---6---5\7---5/4\5---6---5\7---5/4\5---6---5\7-----5/4\5--6-------------|
C|-------0---0-------------0---0-------------0---0-------0----------------------|


End Solo Riff X1                                                    2:32 to 2:36

D|------------------------------------------------------------------------------|
A|------------------------------------------------------------------------------|
F|------------------------------------------------------------------------------|
C|------------------------------------------------------------------------------|
G|--5/4\5-------5/4\5-----------8-8333------------------------------------------|
C|-0------65656-------656--000--8-8333------------------------------------------|
                          PM-PM
Heavy palm mutes on the opens above. Can lightly palm the rest if desired.


Final Chorus                                                        2:36 to 3:10

D|------------------------------------------------------------------------------|
A|-3333333555-3----------------33/55----------------33/55-----------------------|
F|-2222222333-2----9-105-77555522/3-----9-105-77555522/33----9-105-775555-------|
C|------------0----7-8-3-5-----0-----6--7-8-3-5-----0-----6--7-8-3-5------------|
G|------------0----7-8-3-5-----0-----6--7-8-3-5-----0-----6--7-8-3-5------------|
C|------------0----7-8-3-5-----0-----6--7-8-3-5-----0-----6--7-8-3-5------------|

D|------------------------------------------------------------------------------|
A|------------------33/55----------------33/55----------------------------------|
F|-5555555577777777-22/33----9-105-77555522/33----9-105-775555------------------|
C|------------------0--------7-8-3-5-----0-----6--7-8-3-5-----------------------|
G|------------------0--------7-8-3-5-----0-----6--7-8-3-5-----------------------|
C|------------------0--------7-8-3-5-----0-----6--7-8-3-5-----------------------|

D|------------------------------------------------------------------------------|
A|-33/55------------------------------------------------------------------------|
F|-22/33----9/105/7755--------------5555555577777777----------------------------|
C|-0-----6--7/8-3/5-------------------------------------------------------------|
G|-0-----6--7/8-3/5-------------------------------------------------------------|
C|-0-----6--7/8-3/5---Three-Times------------------------xx-3-------------------|
                                    PM-------------PM (light)                          
Timing here varies, listen hard.    


Outro X1                                                            3:10 to 3:24

D|------------------------------------------------------------------------------|
A|------------------------------------------------------------------------------|
F|------------------------------------------------------------------------------|
C|------------------------------------------------------------------------0-----|
G|------------------------------------------------------------------------0-----|
C|-0--00-00-3-00-00--0--00-00-3-00-00--0--00-00-3-00-00--0--00-00-3-00-00-0-----|
   PM--------------------------------------------------------------------PM 



Thats it! I did my best, please email me comments and corrections!!

SpyderPB6@hotmail.com

===============================================================================
Tap to rate this tab
# A B C D E F G H I J K L M N O P Q R S T U V W X Y Z