Guitaretab - guitar tabs
Song name
# A B C D E F G H I J K L M N O P Q R S T U V W X Y Z

Disturbed - Remember tab

Disturbed
Remember
Believe (2001)


Tabbed by: chrisw90_uk@hotmail.com


Tuning - Drop D (Db Ab Db Gb Bb Eb)

INTRO (PARTIAL PALM MUTE)

Eb|-------------------------|------------------------|
Bb|-------------------------|------------------------|
Gb|-------------------------|------------------------|
Db|-0-00-8-0-0-0-3/7-0-3-0-3|-0-00-8-0-0-0-3/7-0-3--3|
Ab|-0-00-8-0-0-0-3/7-0-3-0-3|-0-00-8-0-0-0-3/7-0-3--3|
Db|-0-00-8-0-0-0-3/7-0-3-0-3|-0-00-8-0-0-0-3/7-0-3--3|

Eb|--------------------------|------------------------|
Bb|--------------------------|------------------------|
Gb|--------------------------|------------------------|
Db|3-0-00-8-0-0-0-3/7-0-3-0-3|-0-00-8-0-0-0-3/7-0-3--3|
Ab|3-0-00-8-0-0-0-3/7-0-3-0-3|-0-00-8-0-0-0-3/7-0-3--3|
Db|3-0-00-8-0-0-0-3/7-0-3-0-3|-0-00-8-0-0-0-3/7-0-3--3|

VERSE

Eb|----------------------------------------------------------------------|
Bb|----------------------------------------------------------------------|
Gb|----------------------------------------------------------------------|
Db|----------------------------------------------------------------------|
Ab|---------13-----------12----------------------13-----------12-------13|
Db|-0-12-14----0-0-12-14----12-14-12-14--0-12-14----0-0-12-14----12-14---|

Eb|------------------------------------------------------|
Bb|------------------------------------------------------|
Gb|------------------------------------------------------| X 2
Db|---------------------------------------------10-10-10-|
Ab|-----------12----------------------13--------10-10-10-|
Db|-0-0-12-14----12-14-12-14--0-12-14----0-0-12-10-10-10-|

CHORUS

Eb|-----------------|
Bb|-----------------|
Gb|-----5-----------| X 5
Db|-5-7---7-5-3-0-3-|
Ab|-----------------|
Db|-----------------|

Eb|-----------------------------------------------|
Bb|-------------------------------------------8/10|
Gb|-----------------------------------------5-----| 
Db|-5-5-3-3---------5-7---7-5-3-0-0-5-5-7-7-------|
Ab|---------5-3-5-3-------------------------------|
Db|-----------------------------------------------|
[ Tab from: http://www.guitaretab.com/d/disturbed/121078.html ]
Eb|-------------------------------------|
Bb|-------------------------------------|
Gb|-10----10----10----10----10----10----| 
Db|----10----10----12----12----12----12-|
Ab|-------------------------------------|
Db|-------------------------------------|

Eb|--------------------------------------------------|
Bb|-12-12-12(13)/10----------------------------------|
Gb|-----------------12-10-10-12(12.5)-14-14-14h15-14-| 
Db|--------------------------------------------------|
Ab|--------------------------------------------------|
Db|--------------------------------------------------|

VERSE 2 (SAME AS VERSE ONE BUT WITH PALM MUTES)

Eb|----------------------------------------------------------------------|
Bb|----------------------------------------------------------------------|
Gb|----------------------------------------------------------------------|
Db|----------------------------------------------------------------------|
Ab|---------13-----------12----------------------13-----------12-------13|
Db|-0-12-14----0-0-12-14----12-14-12-14--0-12-14----0-0-12-14----12-14---|
   |--PM--|    |---PM---|  |--------PM---------|    |--PM---|    |-PM-|

Eb|------------------------------------------------------|
Bb|------------------------------------------------------|
Gb|------------------------------------------------------| REPEAT WITHOUT 
Db|---------------------------------------------10-10-10-|   PALM MUTES
Ab|-----------12----------------------13--------10-10-10-|
Db|-0-0-12-14----12-14-12-14--0-12-14----0-0-12-10-10-10-|
   |---PM---|   |---------PM---------|  |--PM--|

CHORUS

CHORUS 2

Eb|------------------------------------------|
Bb|------------------------------------------|
Gb|------------------------------------------| 
Db|-8-8-12-12-8-8-3-3--8-8-12-12-3-3-3-3-3-3-|   
Ab|-8-8-12-12-8-8-3-3--8-8-12-12-3-3-3-3-3-3-|
Db|-8-8-12-12-8-8-3-3--8-8-12-12-3-3-3-3-3-3-|

Eb|------------------------------------|
Bb|------------------------------------|
Gb|------------------------------------| 
Db|-8-8-12-12-8-8-3-3--5-5-5-5-2-2-2-2-|   
Ab|-8-8-12-12-8-8-3-3--5-5-5-5-2-2-2-2-|
Db|-8-8-12-12-8-8-3-3--5-5-5-5-2-2-2-2-|

INTRO (WITH MORE PALM MUTES)

CHORUS X2

INTRO

END ON

Eb|---|
Bb|---|
Gb|---| 
Db|-3-|   
Ab|-3-|
Db|-3-|


This is my first tab; email me at the above address and tell me what you think!
Related for Remember tab
Remember chords by Disturbed