Song name
# A B C D E F G H I J K L M N O P Q R S T U V W X Y Z

Disturbed - Haunted tab

The tuning for this song is as follows.
D#
A#
F#
C#
G#
C#


This first part comes in after the fourth bell in the intro.

D#-------------------------------------------------|
A#-------------------------------------------------|
F#-------------------------------------------------|  x2
C#-------------------------------------------------|
G#-------------------------------------------------|
C#--9-9-10-9-9-9-10-555----------------------------|
PM*                 ***

D#-------------------------------------------------|
A#-------------------------------------------------|
F#-------------------------------------------------|
C#-------------------------------------------------|
G#-------------------------------------------------|
C#--9-9-10-9-9-9-10-555-8888888866666555-----------|
PM*                 *** ****************

Repeat All Of The Above Twice.

D#-------------------------------------------------|
A#-------------------------------------------------|
F#-------------------------------------------------|x2
C#--9999-9999-9999-9999-3333-5555------------------|
G#--9999-9999-9999-9999-3333-5555------------------|
C#--9999-9999-9999-9999-3333-5555------------------|
The first time you play this, when you ge to the 3333,5555 I like to use a bit of wah 
with distortion.

D#-------------------------------------------------|
A#-------------------------------------------------|
F#-------------------------------------------------|
C#--9999-9999-9999-9999-3333-2222------------------|
G#--9999-9999-9999-9999-3333-2222------------------|
C#--9999-9999-9999-9999-3333-2222------------------|

D#-------------------------------------------------|
A#-------------------------------------------------|
F#-------------------------------------------------|
C#--9999-9999-9999-9999-3333-5555------------------|
G#--9999-9999-9999-9999-3333-5555------------------|
C#--9999-9999-9999-9999-3333-5555------------------|

D#-------------------------------------------------|
A#-------------------------------------------------|
F#-------------------------------------------------|
C#-------------------------------------------------|
G#-121212121212121212121212131313139999999999998888
C#-121212121212121212121212131313139999999999998888
       12's and 13's                   9's and 8's

D#-------------------------------------------------|
A#-------------------------------------------------|
F#-------------------------------------------------|
C#--9999-9999-9999-9999-3333-5555------------------|
G#--9999-9999-9999-9999-3333-5555------------------|
C#--9999-9999-9999-9999-3333-5555------------------|
  "You're broken, so am I"

D#-------------------------------------------------|
A#-------------------------------------------------|
F#-------------------------------------------------|
C#--9999-9999-9999-9999-3333-2222------------------|
G#--9999-9999-9999-9999-3333-2222------------------|
C#--9999-9999-9999-9999-3333-2222------------------|

D#-------------------------------------------------|
A#-------------------------------------------------|
F#-------------------------------------------------|
C#--9999-9999-9999-9999-3333-5555------------------|
G#--9999-9999-9999-9999-3333-5555------------------|
C#--9999-9999-9999-9999-3333-5555------------------|

D#-------------------------------------------------|
A#-------------------------------------------------|
F#-------------------------------------------------|
C#-------------------------------------------------|
G#-121212121212121212121212131313139999999999998888
C#-121212121212121212121212131313139999999999998888
12's and 13's                           9's and 8's

D#-------------------------------------------------|
A#-------------------------------------------------|
F#-------------------------------------------------|
C#--9999-9999-9999-9999-3333-5555------------------|
G#--9999-9999-9999-9999-3333-5555------------------|
C#--9999-9999-9999-9999-3333-5555------------------|
   "You're beaten, so am I."


D#-------------------------------------------------|
A#-------------------------------------------------|
F#-------------------------------------------------|
C#--9999-9999-9999-9999-3333-2222------------------|
G#--9999-9999-9999-9999-3333-2222------------------|
C#--9999-9999-9999-9999-3333-2222------------------|

D#-------------------------------------------------|
A#-------------------------------------------------|
F#-------------------------------------------------|
C#--9999-9999-9999-9999-3333-5555------------------|
G#--9999-9999-9999-9999-3333-5555------------------|
C#--9999-9999-9999-9999-3333-5555------------------|

D#-------------------------------------------------|
A#-------------------------------------------------|
F#-------------------------------------------------|
C#-------------------------------------------------|
G#-121212121212121212121212131313139999999999998888
C#-121212121212121212121212131313139999999999998888
12's and 13's                           9's and 8's

D#------------------------------------------------|
A#------------------------------------------------|
F#------------------------------------------------|
C#-7--9--6-6-7-8--7--9--6-6/12-11-11--------------|
G#-7--9--6-6-7-8--7--9--6-6/12-11-11--------------|
C#-7--9--6-6-7-8--7--9--6-6/12-11-11--------------|

D#------------------------------------------------|
A#----------------------------0-5-0-4-3-2---------|
F#------------------------------------------------|
C#-7--9--6-6-7-8--7--9--6-6-----------------------|
G#-7--9--6-6-7-8--7--9--6-6-----------------------|
C#-7--9--6-6-7-8--7--9--6-6-----------------------|
                  "I'm Haunting my own worlllld."


D#-------------------------------------------------|
A#-------------------------------------------------|
F#-------------------------------------------------|
C#-------------------------------------------------|
G#-------------------------------------------------|
C#--9-9-10-9-9-9-10-555----------------------------|
PM*                 ***

D#-------------------------------------------------|
A#-------------------------------------------------|
F#-------------------------------------------------|
C#-------------------------------------------------|
G#-------------------------------------------------|
C#--9-9-10-9-9-9-10-555-8888888866666555-----------|
PM*                 *** ****************

D#-------------------------------------------------|
A#-------------------------------------------------|
F#-------------------------------------------------|x2
C#--9999-9999-9999-9999-3333-5555------------------|
G#--9999-9999-9999-9999-3333-5555------------------|
C#--9999-9999-9999-9999-3333-5555------------------|
Once again, first time play the 3's and 5's with a bit of wah/dist.

D#-------------------------------------------------|
A#-------------------------------------------------|
F#-------------------------------------------------|
C#--9999-9999-9999-9999-3333-2222------------------|
G#--9999-9999-9999-9999-3333-2222------------------|
C#--9999-9999-9999-9999-3333-2222------------------|
  "My blood is cold as ice, or so I have been told."


D#-------------------------------------------------|
A#-------------------------------------------------|
F#-------------------------------------------------|
C#--9999-9999-9999-9999-3333-5555------------------|
G#--9999-9999-9999-9999-3333-5555------------------|
C#--9999-9999-9999-9999-3333-5555------------------|

D#-------------------------------------------------|
A#-------------------------------------------------|
F#-------------------------------------------------|
C#-------------------------------------------------|
G#-121212121212121212121212131313139999999999998888
C#-121212121212121212121212131313139999999999998888
12's and 13's                           9's and 8's

D#-------------------------------------------------|
A#-------------------------------------------------|
F#-------------------------------------------------|
C#--9999-9999-9999-9999-3333-5555------------------|
G#--9999-9999-9999-9999-3333-5555------------------|
C#--9999-9999-9999-9999-3333-5555------------------|
   "You're angered,so am I."


D#-------------------------------------------------|
A#-------------------------------------------------|
F#-------------------------------------------------|
C#--9999-9999-9999-9999-3333-2222------------------|
G#--9999-9999-9999-9999-3333-2222------------------|
C#--9999-9999-9999-9999-3333-2222------------------|

D#-------------------------------------------------|
A#-------------------------------------------------|
F#-------------------------------------------------|
C#--9999-9999-9999-9999-3333-5555------------------|
G#--9999-9999-9999-9999-3333-5555------------------|
C#--9999-9999-9999-9999-3333-5555------------------|

D#-------------------------------------------------|
A#-------------------------------------------------|
F#-------------------------------------------------|
C#-------------------------------------------------|
G#-121212121212121212121212131313139999999999998888
C#-121212121212121212121212131313139999999999998888
12's and 13's                           9's and 8's

D#------------------------------------------------|
A#------------------------------------------------|
F#------------------------------------------------|
C#-7--9--6-6-7-8--7--9--6-6/12-11-11--------------|
G#-7--9--6-6-7-8--7--9--6-6/12-11-11--------------|
C#-7--9--6-6-7-8--7--9--6-6/12-11-11--------------|

D#------------------------------------------------|
A#----------------------------0-5-0-4-3-2---------|
F#------------------------------------------------|
C#-7--9--6-6-7-8--7--9--6-6-----------------------|
G#-7--9--6-6-7-8--7--9--6-6-----------------------|
C#-7--9--6-6-7-8--7--9--6-6-----------------------|
                   "I'm haunting my own worllld."


D#------------------------------------------------|
A#------------------------------------------------|
F#------0-----0---0-------0-----------------------| x10
C#----4-----4-------4---4-------------------------|
G#--2-----2-----2-----2---------------------------|
C#------------------------------------------------|
   "A maniacal unit of sub-human parasites."


D#-------------------------------------------------|
A#-------------------------------------------------|
F#-------------------------------------------------|
C#--9999-9999-9999-9999----------------------------|
G#--9999-9999-9999-9999----------------------------|
C#--9999-9999-9999-9999----------------------------|

D#-------------------------------------------------|
A#-------------------------------------------------|
F#-------------------------------------------------|
C#--9999-9999-9999-9999-3333-5555------------------|
G#--9999-9999-9999-9999-3333-5555------------------|
C#--9999-9999-9999-9999-3333-5555------------------|
   "You're frightened so am I."


D#-------------------------------------------------|
A#-------------------------------------------------|
F#-------------------------------------------------|
C#--9999-9999-9999-9999-3333-2222------------------|
G#--9999-9999-9999-9999-3333-2222------------------|
C#--9999-9999-9999-9999-3333-2222------------------|

D#-------------------------------------------------|
A#-------------------------------------------------|
F#-------------------------------------------------|
C#--9999-9999-9999-9999-3333-5555------------------|
G#--9999-9999-9999-9999-3333-5555------------------|
C#--9999-9999-9999-9999-3333-5555------------------|

D#-------------------------------------------------|
A#-------------------------------------------------|
F#-------------------------------------------------|
C#-------------------------------------------------|
G#-121212121212121212121212131313139999999999998888
C#-121212121212121212121212131313139999999999998888
12's and 13's                           9's and 8's

D#-------------------------------------------------|
A#-------------------------------------------------|
F#-------------------------------------------------|
C#--9999-9999-9999-9999-3333-5555------------------|
G#--9999-9999-9999-9999-3333-5555------------------|
C#--9999-9999-9999-9999-3333-5555------------------|
   "Your worllllld"


D#-------------------------------------------------|
A#-------------------------------------------------|
F#-------------------------------------------------|
C#--9999-9999-9999-9999-3333-2222------------------|
G#--9999-9999-9999-9999-3333-2222------------------|
C#--9999-9999-9999-9999-3333-2222------------------|

D#-------------------------------------------------|
A#-------------------------------------------------|
F#-------------------------------------------------|
C#--9999-9999-9999-9999-3333-5555------------------|
G#--9999-9999-9999-9999-3333-5555------------------|
C#--9999-9999-9999-9999-3333-5555------------------|

D#-------------------------------------------------|
A#-------------------------------------------------|
F#-------------------------------------------------|
C#-------------------------------------------------|
G#-121212121212121212121212131313139999999999998888
C#-121212121212121212121212131313139999999999998888
12's and 13's                           9's and 8's

D#-------------------------------------------------|
A#-------------------------------------------------|
F#--12-12--11-11-----------------------------------|x4
C#----------------12---10---11---------------------|
G#-------------------------------11---10-----------|
C#-9-----9------9----9----9----9----9--------------|

Last strums.

D#-----
A#-----
F#-----
C#-9-9-
G#-9-9-
C#-9-9-
Tap to rate this tab
# A B C D E F G H I J K L M N O P Q R S T U V W X Y Z