Song name
# A B C D E F G H I J K L M N O P Q R S T U V W X Y Z

Disturbed - Fear tab

------------       Artist - Disturbed
  \ FEAR \         Track  - Fear
------------       Album  - The Sickness (2000)
Dropped D tuning:
Tune down 1/2 step:
(6)=Db (3)=Gb
(5)=Ab (2)=Bb
(4)=Db (1)=Eb

Moderately, tempo = 90

Intro:

        *15ma- - - - - - - - - - - - - - - - - - - - - - - -|
   Q      H.      Q      H.      Q      W            H     H
||-----|---------19---|-18-----------|------------|-15----17-----|
||-----|-17-----------|---------17---|-19---------|--------------|
||-----|--------------|--------------|------------|--------------|
||-----|--------------|--------------|------------|--------------|
||-----|--------------|--------------|------------|--------------|
||-----|--------------|--------------|------------|--------------|
        *All notes sound two octaves higher than written
         by use of Whammy Pedal, set one octave higher.

{Guitar 1}
  15ma- - - - - - - - - - - - - - - - - - - - - - - -|
   H.      Q      H.      Q      W            H     H
|---------19---|-18-----------|------------|-15----17-----|
|-17-----------|---------17---|-19---------|--------------|
|--------------|--------------|------------|--------------|
|--------------|--------------|------------|--------------|
|--------------|--------------|------------|--------------|
|--------------|--------------|------------|--------------|
|
|{Guitar 2}
|                                           Gtrs. 1&2 tacet
|  H.      Q      H.      Q      W            H     H
|--------------|--------------|------------|--------------|
|--------------|--------------|------------|--------------|
|--------------|--------------|------------|--------------|
|----------9---|--8-----------|------------|--------------|
|--7-----------|----------7---|--9---------|-10----12-----|
|--------------|--------------|------------|--------------|

{Guitar 3}
 Rhy Fig.1
    S S E  S S S S S S E  S S S S   S S E  S S S S S S E  S E  S 
||--------------------------------|------------------------------|
||o-------------------------------|------------------------------|
||--------------------------------|------------------------------|
||--------------------------------|------------------------------|
||o-2-0-2----3-0-3-2-0-2----3-0-3-|-2-0-2----3-0-3-2-0-2----3--5-|
||--2-0-2----3-0-3-2-0-2----3-0-3-|-2-0-2----3-0-3-2-0-2----3--5-|

                                                 end Rhy Fig.1
  S S E  S S S S S S E  S S S S   S S E  S S S S S S E  S E  S 
|-------------------------------|-------------------------------||
|-------------------------------|------------------------------o||
|-------------------------------|-------------------------------||
|-------------------------------|-------------------------------||
|-2-0-2----3-0-3-2-0-2----3-0-3-|-2-0-2----3-0-3-2-0-2----3--5-o||
|-2-0-2----3-0-3-2-0-2----3-0-3-|-2-0-2----3-0-3-2-0-2----3--5--||

Verse:

    W           +W            +W            +H.      Q
||------------|-------------|-------------|--------------|
||o-----------|-------------|-------------|--------------|
||------------|-------------|-------------|--------------|
||------------|-------------|-------------|--------------|
||o-2---------|-(2)---------|-(2)---------|-(2)------x\--|
||--2---------|-(2)---------|-(2)---------|-(2)------x\--|

  PM- - - - - - - - - - - - - - - - -|     PM- - - -|     PM- - -
  S S E  S S S S S S E  S S S S   S S E  S S S S S S E  S S S S
|-------------------------------|-------------------------------|
|-------------------------------|-------------------------------|
|-------------------------------|-------------------------------|
|-------------------------------|-------------------------------|
|-----2-------------------------|-----2-------------------------|
|-2-0-2----3-0-3-2-0-2----3-0-3-|-2-0-2----3-0-3-2-0-2----3-2-3-|

(PM)-|     PM- - - -|     PM- - - - -|     PM- - - -| 
  S S E  S S S S S S E  S S S S   S S E  S S S S S S E  S S E
|-------------------------------|-------------------------------|
|-------------------------------|-------------------------------|
|-------------------------------|-------------------------------|
|-------------------------------|-------------------------------|
|-----2-------------------------|-----2-------------------3-8\--|
|-2-0-2----3-0-3-2-0-2----3-0-3-|-2-0-2----3-0-3-2-0-2----3-8\--|

Pre-Chorus:
$

  S S S S E  S S S S E  S S S S   S S S S E  S S S S S S S S S S
|-------------------------------|--------------------------------|
|-------------------------------|--------------------------------|
|-------------------------------|--------------------------------|
|-------------------------------|------------------------8-8-8-8-|
|-3h5-2---2--5s7-2---2--3h5-0-3-|-5s7-2---2--2-2-2-2-2-2-8-8-8-8-|
|-3h5-2---2--5s7-2---2--3h5-0-3-|-5s7-2---2--2-2-2-2-2-2-8-8-8-8-|
                                 ____________
                                |1.
  S S S S E  S S S S E  S S S S   S S S S E  S S S S S S S S S S
|-------------------------------|---------------------------------||
|-------------------------------|--------------------------------o||
|-------------------------------|---------------------------------||
|-------------------------------|------------------------8-8-8-8--||
|-3h5-2---2--5s7-2---2--3h5-0-3-|-5s7-2---2--2-2-2-2-2-2-8-8-8-8-o||
|-3h5-2---2--5s7-2---2--3h5-0-3-|-5s7-2---2--2-2-2-2-2-2-8-8-8-8--||
 _____________
|2.3.
  S S E S E  S S S S S S S S S S 
|---------------------------------||
|--------------------------------o||
|---------------------------------||
|--/8-----------------------------||
|-5s8-2---2--2-2-2-2-2-2-8-8-8-8-o||
|-5s8-2---2--2-2-2-2-2-2-8-8-8-8--||

  S S S S E  S S S S E  S S S S   S S S S E  S S S S S S S S S S
|-------------------------------|--------------------------------|
|-------------------------------|--------------------------------|
|-------------------------------|--------------------------------|
|-------------------------------|------------------------8-8-8-8-|
|-3h5-2---2--5s7-2---2--3h5-0-3-|-5s7-2---2--2-2-2-2-2-2-8-8-8-8-|
|-3h5-2---2--5s7-2---2--3h5-0-3-|-5s7-2---2--2-2-2-2-2-2-8-8-8-8-|

  S S S S E  S S S S E  S S S S   S S S S E  S S S S S S S S S S
|-------------------------------|--------------------------------|
|-------------------------------|--------------------------------|
|-------------------------------|--------------------------------|
|-------------------------------|------------------------8-8-8-8-|
|-3h5-2---2--5s7-2---2--3h5-0-3-|-5s7-2---2--2-2-2-2-2-2-8-8-8-8-|
|-3h5-2---2--5s7-2---2--3h5-0-3-|-5s7-2---2--2-2-2-2-2-2-8-8-8-8-|

Chorus:
                                                                 To Coda
  E.  E.  E.  E.  E  E    E.  E.  E.  E.  E  E    E.  E.  E.  E.  E  E
|-----------------------|-----------------------|-----------------------|
|-----------------------|-----------------------|-----------------------|
|-----------------------|-----------------------|-----------------------|
|-9---------------5s10--|-9---------------------|-9---------------5s10--|
|-7---2---3---5---3s=8--|-7---2---3---5---5--3--|-7---2---3---5---3s=8--|
|-----2---3---5---------|-----2---3---5---5--3--|-----2---3---5---------|

  E.  E.  E.  E.  E  E 
|-----------------------|
|-----------------------|
|-----------------------|
|-9---------------------|
|-7---2---3---5---5--3--|
|-----2---3---5---5--3--|

Breakdown:

  S S S E.  S S S E.  S S E    S S S E.  S S S S S E.  E
|----------------------------|----------------------------|
|----------------------------|----------------------------|
|-------3---------3-------3--|-------3-----------------2--|
|-2-2-------2-2-------2-2----|-2-2-------2---2-3-2-0---0--|
|-2-2-------2-2-------2-2----|-2-2-------2---2-3-2-0---0--|
|-2-2-------2-2-------2-2----|-2-2-------2---2-3-2-0---0--|

  S S S E.  S S S E.  S S E    S S S E.  S S S S S E.    E
|----------------------------|-------------------------------|
|----------------------------|-------------------------------|
|-------3---------3-------3--|-------3-----------------------|
|-2-2-------2-2-------2-2----|-2-2-------2---2-3-2-0---------|
|-2-2-------2-2-------2-2----|-2-2-------2---2-3-2-0---------|
|-2-2-------2-2-------2-2----|-2-2-------2---2-3-2-0---/12\--|

  S S S E.  S S S E.  S S E    S S S E.  S S S S S E.  E
|----------------------------|----------------------------|
|----------------------------|----------------------------|
|-------3---------3-------3--|-------3-----------------2--|
|-2-2-------2-2-------2-2----|-2-2-------2---2-3-2-0---0--|
|-2-2-------2-2-------2-2----|-2-2-------2---2-3-2-0---0--|
|-2-2-------2-2-------2-2----|-2-2-------2---2-3-2-0---0--|

  S S S E.  S S S E.  S S E    S S S E.  S S S S S E.  E
|----------------------------|----------------------------|
|----------------------------|----------------------------|
|-------3---------3-------3--|-------3-----------------2--|
|-2-2-------2-2-------2-2----|-2-2-------2---2-3-2-0---0--|
|-2-2-------2-2-------2-2----|-2-2-------2---2-3-2-0---0--|
|-2-2-------2-2-------2-2----|-2-2-------2---2-3-2-0---0--|

  S S S E.  S S S E.  S S E    S S S E.  S S S S S E.  E
|----------------------------|----------------------------|
|----------------------------|----------------------------|
|-------3---------3-------3--|-------3-----------------2--|
|-2-2-------2-2-------2-2----|-2-2-------2---2-3-2-0---0--|
|-2-2-------2-2-------2-2----|-2-2-------2---2-3-2-0---0--|
|-2-2-------2-2-------2-2----|-2-2-------2---2-3-2-0---0--|

{Guitar 3}
  S S S E.  S S S E.  S S E    S S S E.  S S S S S E.  E
|----------------------------|------------------------------|
|----------------------------|------------------------------|
|-------3---------3-------3--|-------3----------------------|
|-2-2-------2-2-------2-2----|-2-2-------2---2-3-2-0-(0)----|
|-2-2-------2-2-------2-2----|-2-2-------2---2-3-2-0-(0)----|
|-2-2-------2-2-------2-2----|-2-2-------2---2-3-2-0-(0)----|
|
|{Guitar 2}
|
| W                            H.                    E  S S
|----------------------------|------------------------------|
|----------------------------|------------------------------|
|----------------------------|------------------------------|
|----------------------------|------------------------------|
|----------------------------|------------------------------|
|----------------------------|--------------------------2---|

                                  D.S. al Coda
                               2/4
  +W                            +H 
|-----------------------------|---------------|
|-----------------------------|---------------|
|-----------------------------|---------------|
|-(0)-------------------------|-(0)-----------|
|-(0)-------------------------|-(0)-----------|
|-(0)-------------------------|-(0)-----------|
|
| S S S E.  S S S S S E.  S S   S S S E.  S S
|-----------------------------|---------------|
|-----------------------------|---------------| 
|-----------------------------|---------------|
|-----------------------------|---------------|
|-----------------------------|---------------|
|-2-3-2-0---2---2-3-2-0---2---|-2-3-2-0---2---|

  4/4
  Coda
  {Guitar 3}  
    E.  E.  E.  E.  E  E    E.  E.  E.  E.  E  E
  |-----------------------|-----------------------|
  |-----------------------|-----------------------|
  |-----------------------|-----------------------|
  |-9---------------------|-9---------------5s10--|
  |-7---2---3---5---5--3--|-7---2---3---5---3s=8--|
  |-----2---3---5---5--3--|-----2---3---5---------|

  E.  E.  E.  E.  E  E    E.  E.  E.  E.  E  E
|-----------------------|-----------------------|
|-----------------------|-----------------------|
|-----------------------|-----------------------|
|-9---------------------|-9---------------5s10--|
|-7---2---3---5---5--3--|-7---2---3---5---3s=8--|
|-----2---3---5---5--3--|-----2---3---5---------|

{Guitar 3}
                    ~~~~~
  E.  E.  E.  E.    Q      W
|------------------------|-------------------------------|
|------------------------|-------------------------------|
|------------------------|-------------------------------|
|-9----------------------|-------------------------------|
|-7---2---3---5----------|-------------------------------|
|-----2---3---5---/20----|-------------------------------|
|
|(Guitar 2}
| W                        S S E  S S S S S S E  S S S S
|------------------------|-------------------------------|
|------------------------|-------------------------------|
|------------------------|-------------------------------|
|------------------------|-2-0-2----3-2-3-2-0-2----3-2-3-|
|------------------------|-2-0-2----3-2-3-2-0-2----3-2-3-|
|------------------------|-2-0-2----3-2-3-2-0-2----3-2-3-|

{Guitar 3}
  S S E  S S S S S S E  S S S S   S S E  S S S S S S E  S S S S
|-------------------------------|-------------------------------|
|-------------------------------|-------------------------------|
|-------------------------------|-------------------------------|
|-2-0-2----3-0-3-2-0-2----3-0-3-|-2-0-2----3-0-3-2-0-2----3-0-3-|
|-2-0-2----3-0-3-2-0-2----3-0-3-|-2-0-2----3-0-3-2-0-2----3-0-3-|
|-2-0-2----3-0-3-2-0-2----3-0-3-|-2-0-2----3-0-3-2-0-2----3-0-3-|

                                  PM-|           PM-|
  S S E  S S S S S S E  S S S S   S S E  S S S S S S E  S S S S
|-------------------------------|-------------------------------|
|-------------------------------|-------------------------------|
|-------------------------------|-------------------------------|
|-2-0-2----3-0-3-2-0-2----3-0-3-|-2-0-2----3-0-3-2-0-2----3-0-3-|
|-2-0-2----3-0-3-2-0-2----3-0-3-|-2-0-2----3-0-3-2-0-2----3-0-3-|
|-2-0-2----3-0-3-2-0-2----3-0-3-|-2-0-2----3-0-3-2-0-2----3-0-3-|

  S S E  S S S S S S E  S S S S   S S E  S S S S S S E  S S S S
|-------------------------------|-------------------------------|
|-------------------------------|-------------------------------|
|-------------------------------|-------------------------------|
|-2-0-2----3-0-3-2-0-2----3-0-3-|-2-0-2----3-0-3-2-0-2----3-0-3-|
|-2-0-2----3-0-3-2-0-2----3-0-3-|-2-0-2----3-0-3-2-0-2----3-0-3-|
|-2-0-2----3-0-3-2-0-2----3-0-3-|-2-0-2----3-0-3-2-0-2----3-0-3-|

  S S E  S S S S S S E  S S S S   E  E  H.
|-------------------------------|-------------|
|-------------------------------|-------------|
|-------------------------------|-------------|
|-2-0-2----3-0-3-2-0-2--3-3-3-3-|-------------|
|-2-0-2----3-0-3-2-0-2--3-3-3-3-|-2-----------|
|-2-0-2----3-0-3-2-0-2--3-3-3-3-|-2-----------|
Tap to rate this tab
# A B C D E F G H I J K L M N O P Q R S T U V W X Y Z