Song name
# A B C D E F G H I J K L M N O P Q R S T U V W X Y Z

Disturbed - Torn tab

  Disturbed - Torn Solo Tuning:C#G#C#F#A#D#
Key:
<>-Pinch Harmonic
V-Vibrato
T-Tapping
B-Bend
H-Hammer-On
P-Pull-Off

|-----------------------------------------------------------------------------|
|17b---<17v>-------14h17p14-----14h17p14-----14h17p14-----14h17p16------------|
|--------------16b----------16b----------16b----------16b-----------16b----13-|
|-----------------------------------------------------------------------14----|
|-----------------------------------------------------------------------------|
|-----------------------------------------------------------------------------|

|----------------------------------------------------------------------------|
|---------------------14-14b---14p12--------------------------------------14-|
|14p13p11-------13h16----------------14-16b--------<14>-------------16b------|
|---------13h16--------------------------------------------------------------|
|--------------------------------------------14-16------------12-14----------|
|-------------------------------------------------------14-16----------------|

|------------------------------20-17----------------------------------------|
|14b--14-14b--14-14b--14-------------19---------14-17----------17b--17v--14-|
|16b-----16b-----16b-----16b------------18v--16-----------------------------|
|-----------------------------------------------------18-19-18--------------|
|---------------------------------------------------------------------------|
|---------------------------------------------------------------------------|

|------17-17b-----17b--17v---------------------------------------------------|
|17-19---------19------------------------------------------------------------|
|---------------------------16p14----18p14h16p14----18p14h16p14----18p14h16p-|
|---------------------------------16-------------16-------------16-----------|
|----------------------------------------------------------------------------|
|----------------------------------------------------------------------------|
                                                                    T
|----------------------------------------------------------------------------|
|----------------------------------------------------------------------------|
|14----18p14h16-18p14h16p14--------14----14-------------------------16-11h14-|
|---16----------------------16-15b----15b---16v--11-11-14-11-14-11v----------|
|----------------------------------------------------------------------------|
|----------------------------------------------------------------------------|
         T               T               T
|-------------------------------------------------------------------|
|------------------------21-14h17p14-ect-19-14h17p14-ect-18v~~~~~~~-|
|p11-ect-18-11h14p11-ect--------------------------------------------|
|-------------------------------------------------------------------|
|-------------------------------------------------------------------|
|-------------------------------------------------------------------|
Tap to rate this tab
# A B C D E F G H I J K L M N O P Q R S T U V W X Y Z